  0
SECTION
  2
HEADER
  9
$ACADVER
  1
AC1018
  9
$ACADMAINTVER
 70
     0
  9
$DWGCODEPAGE
  3
ANSI_1252
  9
$INSBASE
 10
0.0
 20
0.0
 30
0.0
  9
$EXTMIN
 10
-97.6442667310144
 20
-16.06861971095689
 30
-0.3125
  9
$EXTMAX
 10
39.4375
 20
15.82025267535988
 30
14.87500000000005
  9
$LIMMIN
 10
0.0
 20
0.0
  9
$LIMMAX
 10
12.0
 20
9.0
  9
$ORTHOMODE
 70
     0
  9
$REGENMODE
 70
     1
  9
$FILLMODE
 70
     1
  9
$QTEXTMODE
 70
     0
  9
$MIRRTEXT
 70
     1
  9
$LTSCALE
 40
0.0393700787401575
  9
$ATTMODE
 70
     1
  9
$TEXTSIZE
 40
0.2
  9
$TRACEWID
 40
0.05
  9
$TEXTSTYLE
  7
Standard
  9
$CLAYER
  8
Default
  9
$CELTYPE
  6
ByLayer
  9
$CECOLOR
 62
   256
  9
$CELTSCALE
 40
1.0
  9
$DISPSILH
 70
     0
  9
$DIMSCALE
 40
1.0
  9
$DIMASZ
 40
0.18
  9
$DIMEXO
 40
0.0625
  9
$DIMDLI
 40
0.38
  9
$DIMRND
 40
0.0
  9
$DIMDLE
 40
0.0
  9
$DIMEXE
 40
0.18
  9
$DIMTP
 40
0.0
  9
$DIMTM
 40
0.0
  9
$DIMTXT
 40
0.18
  9
$DIMCEN
 40
0.09
  9
$DIMTSZ
 40
0.0
  9
$DIMTOL
 70
     0
  9
$DIMLIM
 70
     0
  9
$DIMTIH
 70
     1
  9
$DIMTOH
 70
     1
  9
$DIMSE1
 70
     0
  9
$DIMSE2
 70
     0
  9
$DIMTAD
 70
     0
  9
$DIMZIN
 70
     0
  9
$DIMBLK
  1

  9
$DIMASO
 70
     1
  9
$DIMSHO
 70
     1
  9
$DIMPOST
  1

  9
$DIMAPOST
  1

  9
$DIMALT
 70
     0
  9
$DIMALTD
 70
     2
  9
$DIMALTF
 40
25.4
  9
$DIMLFAC
 40
1.0
  9
$DIMTOFL
 70
     0
  9
$DIMTVP
 40
0.0
  9
$DIMTIX
 70
     0
  9
$DIMSOXD
 70
     0
  9
$DIMSAH
 70
     0
  9
$DIMBLK1
  1

  9
$DIMBLK2
  1

  9
$DIMSTYLE
  2
Standard
  9
$DIMCLRD
 70
     0
  9
$DIMCLRE
 70
     0
  9
$DIMCLRT
 70
     0
  9
$DIMTFAC
 40
1.0
  9
$DIMGAP
 40
0.09
  9
$DIMJUST
 70
     0
  9
$DIMSD1
 70
     0
  9
$DIMSD2
 70
     0
  9
$DIMTOLJ
 70
     1
  9
$DIMTZIN
 70
     0
  9
$DIMALTZ
 70
     0
  9
$DIMALTTZ
 70
     0
  9
$DIMUPT
 70
     0
  9
$DIMDEC
 70
     4
  9
$DIMTDEC
 70
     4
  9
$DIMALTU
 70
     2
  9
$DIMALTTD
 70
     2
  9
$DIMTXSTY
  7
Standard
  9
$DIMAUNIT
 70
     0
  9
$DIMADEC
 70
     0
  9
$DIMALTRND
 40
0.0
  9
$DIMAZIN
 70
     0
  9
$DIMDSEP
 70
    46
  9
$DIMATFIT
 70
     3
  9
$DIMFRAC
 70
     0
  9
$DIMLDRBLK
  1

  9
$DIMLUNIT
 70
     2
  9
$DIMLWD
 70
    -2
  9
$DIMLWE
 70
    -2
  9
$DIMTMOVE
 70
     2
  9
$LUNITS
 70
     2
  9
$LUPREC
 70
     3
  9
$SKETCHINC
 40
0.1
  9
$FILLETRAD
 40
0.5
  9
$AUNITS
 70
     0
  9
$AUPREC
 70
     0
  9
$MENU
  1
.
  9
$ELEVATION
 40
0.0
  9
$PELEVATION
 40
0.0
  9
$THICKNESS
 40
0.0
  9
$LIMCHECK
 70
     0
  9
$CHAMFERA
 40
0.0
  9
$CHAMFERB
 40
0.0
  9
$CHAMFERC
 40
0.0
  9
$CHAMFERD
 40
0.0
  9
$SKPOLY
 70
     0
  9
$TDCREATE
 40
2457825.535118542
  9
$TDUCREATE
 40
2457825.826785208
  9
$TDUPDATE
 40
2457825.535130914
  9
$TDUUPDATE
 40
2457825.826797581
  9
$TDINDWG
 40
0.0000000116
  9
$TDUSRTIMER
 40
0.0000000116
  9
$USRTIMER
 70
     1
  9
$ANGBASE
 50
0.0
  9
$ANGDIR
 70
     0
  9
$PDMODE
 70
     0
  9
$PDSIZE
 40
0.0
  9
$PLINEWID
 40
0.0
  9
$SPLFRAME
 70
     0
  9
$SPLINETYPE
 70
     6
  9
$SPLINESEGS
 70
     8
  9
$HANDSEED
  5
326
  9
$SURFTAB1
 70
     6
  9
$SURFTAB2
 70
     6
  9
$SURFTYPE
 70
     6
  9
$SURFU
 70
     6
  9
$SURFV
 70
     6
  9
$UCSBASE
  2

  9
$UCSNAME
  2

  9
$UCSORG
 10
0.0
 20
0.0
 30
0.0
  9
$UCSXDIR
 10
1.0
 20
0.0
 30
0.0
  9
$UCSYDIR
 10
0.0
 20
1.0
 30
0.0
  9
$UCSORTHOREF
  2

  9
$UCSORTHOVIEW
 70
     0
  9
$UCSORGTOP
 10
0.0
 20
0.0
 30
0.0
  9
$UCSORGBOTTOM
 10
0.0
 20
0.0
 30
0.0
  9
$UCSORGLEFT
 10
0.0
 20
0.0
 30
0.0
  9
$UCSORGRIGHT
 10
0.0
 20
0.0
 30
0.0
  9
$UCSORGFRONT
 10
0.0
 20
0.0
 30
0.0
  9
$UCSORGBACK
 10
0.0
 20
0.0
 30
0.0
  9
$PUCSBASE
  2

  9
$PUCSNAME
  2

  9
$PUCSORG
 10
0.0
 20
0.0
 30
0.0
  9
$PUCSXDIR
 10
1.0
 20
0.0
 30
0.0
  9
$PUCSYDIR
 10
0.0
 20
1.0
 30
0.0
  9
$PUCSORTHOREF
  2

  9
$PUCSORTHOVIEW
 70
     0
  9
$PUCSORGTOP
 10
0.0
 20
0.0
 30
0.0
  9
$PUCSORGBOTTOM
 10
0.0
 20
0.0
 30
0.0
  9
$PUCSORGLEFT
 10
0.0
 20
0.0
 30
0.0
  9
$PUCSORGRIGHT
 10
0.0
 20
0.0
 30
0.0
  9
$PUCSORGFRONT
 10
0.0
 20
0.0
 30
0.0
  9
$PUCSORGBACK
 10
0.0
 20
0.0
 30
0.0
  9
$USERI1
 70
     0
  9
$USERI2
 70
     0
  9
$USERI3
 70
     0
  9
$USERI4
 70
     0
  9
$USERI5
 70
     0
  9
$USERR1
 40
0.0
  9
$USERR2
 40
0.0
  9
$USERR3
 40
0.0
  9
$USERR4
 40
0.0
  9
$USERR5
 40
0.0
  9
$WORLDVIEW
 70
     1
  9
$SHADEDGE
 70
     3
  9
$SHADEDIF
 70
    70
  9
$TILEMODE
 70
     1
  9
$MAXACTVP
 70
    64
  9
$PINSBASE
 10
0.0
 20
0.0
 30
0.0
  9
$PLIMCHECK
 70
     0
  9
$PEXTMIN
 10
1.000000000000000E+20
 20
1.000000000000000E+20
 30
1.000000000000000E+20
  9
$PEXTMAX
 10
-1.000000000000000E+20
 20
-1.000000000000000E+20
 30
-1.000000000000000E+20
  9
$PLIMMIN
 10
0.0
 20
0.0
  9
$PLIMMAX
 10
12.0
 20
9.0
  9
$UNITMODE
 70
     0
  9
$VISRETAIN
 70
     1
  9
$PLINEGEN
 70
     0
  9
$PSLTSCALE
 70
     1
  9
$TREEDEPTH
 70
  3020
  9
$CMLSTYLE
  2
Standard
  9
$CMLJUST
 70
     0
  9
$CMLSCALE
 40
1.0
  9
$PROXYGRAPHICS
 70
     1
  9
$MEASUREMENT
 70
     0
  9
$CELWEIGHT
370
    -1
  9
$ENDCAPS
280
     0
  9
$JOINSTYLE
280
     0
  9
$LWDISPLAY
290
     0
  9
$INSUNITS
 70
     1
  9
$HYPERLINKBASE
  1

  9
$STYLESHEET
  1

  9
$XEDIT
290
     1
  9
$CEPSNTYPE
380
     0
  9
$PSTYLEMODE
290
     1
  9
$FINGERPRINTGUID
  2
{8F22DC0C-E3B0-4C36-AE5B-B28417D5E6C2}
  9
$VERSIONGUID
  2
{FAEB1C32-E019-11D5-929B-00C0DF256EC4}
  9
$EXTNAMES
290
     1
  9
$PSVPSCALE
 40
0.0
  9
$OLESTARTUP
290
     0
  9
$SORTENTS
280
   127
  9
$INDEXCTL
280
     0
  9
$HIDETEXT
280
     1
  9
$XCLIPFRAME
290
     0
  9
$HALOGAP
280
     0
  9
$OBSCOLOR
 70
   257
  9
$OBSLTYPE
280
     0
  9
$INTERSECTIONDISPLAY
280
     0
  9
$INTERSECTIONCOLOR
 70
   257
  9
$DIMASSOC
280
     2
  9
$PROJECTNAME
  1

  0
ENDSEC
  0
SECTION
  2
CLASSES
  0
CLASS
  1
ACDBDICTIONARYWDFLT
  2
AcDbDictionaryWithDefault
  3
ObjectDBX Classes
 90
        0
 91
        4
280
     0
281
     0
  0
CLASS
  1
VISUALSTYLE
  2
AcDbVisualStyle
  3
ObjectDBX Classes
 90
     4095
 91
        4
280
     0
281
     0
  0
CLASS
  1
MATERIAL
  2
AcDbMaterial
  3
ObjectDBX Classes
 90
     1153
 91
        4
280
     0
281
     0
  0
CLASS
  1
SCALE
  2
AcDbScale
  3
ObjectDBX Classes
 90
     1153
 91
        4
280
     0
281
     0
  0
CLASS
  1
SUN
  2
AcDbSun
  3
SCENEOE
 90
     1153
 91
        4
280
     0
281
     0
  0
CLASS
  1
DICTIONARYVAR
  2
AcDbDictionaryVar
  3
ObjectDBX Classes
 90
        0
 91
        4
280
     0
281
     0
  0
ENDSEC
  0
SECTION
  2
TABLES
  0
TABLE
  2
VPORT
  5
8
330
0
100
AcDbSymbolTable
 70
     1
  0
VPORT
  5
29
330
8
100
AcDbSymbolTableRecord
100
AcDbViewportTableRecord
  2
*Active
 70
     0
 10
0.0
 20
0.0
 11
1.0
 21
1.0
 12
5.436283778679936
 22
-0.1241835177985067
 13
0.0
 23
0.0
 14
0.5
 24
0.5
 15
0.5
 25
0.5
 16
0.0
 26
0.0
 36
1.0
 17
0.0
 27
0.0
 37
0.0
 40
32.52664983404311
 41
2.132481563437764
 42
50.0
 43
0.0
 44
0.0
 50
0.0
 51
0.0
 71
     0
 72
   100
 73
     1
 74
     3
 75
     0
 76
     0
 77
     0
 78
     0
281
     0
 65
     1
110
0.0
120
0.0
130
0.0
111
1.0
121
0.0
131
0.0
112
0.0
122
1.0
132
0.0
 79
     0
146
0.0
  0
ENDTAB
  0
TABLE
  2
LTYPE
  5
5
330
0
100
AcDbSymbolTable
 70
     1
  0
LTYPE
  5
14
330
5
100
AcDbSymbolTableRecord
100
AcDbLinetypeTableRecord
  2
ByBlock
 70
     0
  3

 72
    65
 73
     0
 40
0.0
  0
LTYPE
  5
15
330
5
100
AcDbSymbolTableRecord
100
AcDbLinetypeTableRecord
  2
ByLayer
 70
     0
  3

 72
    65
 73
     0
 40
0.0
  0
LTYPE
  5
16
330
5
100
AcDbSymbolTableRecord
100
AcDbLinetypeTableRecord
  2
Continuous
 70
     0
  3
Solid line
 72
    65
 73
     0
 40
0.0
  0
ENDTAB
  0
TABLE
  2
LAYER
  5
2
330
0
100
AcDbSymbolTable
 70
     6
  0
LAYER
  5
10
330
2
100
AcDbSymbolTableRecord
100
AcDbLayerTableRecord
  2
0
 70
     0
 62
     7
  6
Continuous
370
    -3
390
F
  0
LAYER
  5
6A
330
2
100
AcDbSymbolTableRecord
100
AcDbLayerTableRecord
  2
Layer 04
 70
     0
 62
    96
420
    32512
  6
Continuous
370
    -3
390
F
  0
LAYER
  5
7D
330
2
100
AcDbSymbolTableRecord
100
AcDbLayerTableRecord
  2
Default
 70
     0
 62
    18
420
        0
  6
Continuous
370
    -3
390
F
  0
LAYER
  5
8E
330
2
100
AcDbSymbolTableRecord
100
AcDbLayerTableRecord
  2
FRAME
 70
     0
 62
    18
420
        0
  6
Continuous
370
    -3
390
F
  0
LAYER
  5
151
330
2
100
AcDbSymbolTableRecord
100
AcDbLayerTableRecord
  2
MARBLE
 70
     0
 62
    18
420
        0
  6
Continuous
370
    -3
390
F
  0
LAYER
  5
1A6
330
2
100
AcDbSymbolTableRecord
100
AcDbLayerTableRecord
  2
Glass
 70
     0
 62
    18
420
        0
  6
Continuous
370
    -3
390
F
  0
ENDTAB
  0
TABLE
  2
STYLE
  5
3
330
0
100
AcDbSymbolTable
 70
     1
  0
STYLE
  5
11
330
3
100
AcDbSymbolTableRecord
100
AcDbTextStyleTableRecord
  2
Standard
 70
     0
 40
0.0
 41
1.0
 50
0.0
 71
     0
 42
0.2
  3
txt
  4

  0
ENDTAB
  0
TABLE
  2
VIEW
  5
6
330
0
100
AcDbSymbolTable
 70
     0
  0
ENDTAB
  0
TABLE
  2
UCS
  5
7
330
0
100
AcDbSymbolTable
 70
     0
  0
ENDTAB
  0
TABLE
  2
APPID
  5
9
330
0
100
AcDbSymbolTable
 70
     1
  0
APPID
  5
12
330
9
100
AcDbSymbolTableRecord
100
AcDbRegAppTableRecord
  2
ACAD
 70
     0
  0
ENDTAB
  0
TABLE
  2
DIMSTYLE
  5
A
330
0
100
AcDbSymbolTable
 70
     1
100
AcDbDimStyleTable
  0
DIMSTYLE
105
27
330
A
100
AcDbSymbolTableRecord
100
AcDbDimStyleTableRecord
  2
Standard
 70
     0
178
     0
340
11
  0
ENDTAB
  0
TABLE
  2
BLOCK_RECORD
  5
1
330
0
100
AcDbSymbolTable
 70
     1
  0
BLOCK_RECORD
  5
1F
330
1
100
AcDbSymbolTableRecord
100
AcDbBlockTableRecord
  2
*Model_Space
340
22
  0
BLOCK_RECORD
  5
1B
330
1
100
AcDbSymbolTableRecord
100
AcDbBlockTableRecord
  2
*Paper_Space
340
1E
  0
BLOCK_RECORD
  5
23
330
1
100
AcDbSymbolTableRecord
100
AcDbBlockTableRecord
  2
*Paper_Space0
340
26
  0
ENDTAB
  0
ENDSEC
  0
SECTION
  2
BLOCKS
  0
BLOCK
  5
20
330
1F
100
AcDbEntity
  8
0
100
AcDbBlockBegin
  2
*Model_Space
 70
     0
 10
0.0
 20
0.0
 30
0.0
  3
*Model_Space
  1
*Model_Space
  0
ENDBLK
  5
21
330
1F
100
AcDbEntity
  8
0
100
AcDbBlockEnd
  0
BLOCK
  5
1C
330
1B
100
AcDbEntity
 67
     1
  8
0
100
AcDbBlockBegin
  2
*Paper_Space
 70
     0
 10
0.0
 20
0.0
 30
0.0
  3
*Paper_Space
  1
*Paper_Space
  0
ENDBLK
  5
1D
330
1B
100
AcDbEntity
 67
     1
  8
0
100
AcDbBlockEnd
  0
BLOCK
  5
24
330
23
100
AcDbEntity
  8
0
100
AcDbBlockBegin
  2
*Paper_Space0
 70
     0
 10
0.0
 20
0.0
 30
0.0
  3
*Paper_Space0
  1
*Paper_Space0
  0
ENDBLK
  5
25
330
23
100
AcDbEntity
  8
0
100
AcDbBlockEnd
  0
ENDSEC
  0
SECTION
  2
ENTITIES
  0
CIRCLE
  5
6B
330
1F
100
AcDbEntity
  8
Layer 04
100
AcDbCircle
 10
-26.96026347695516
 20
3.320252675225166
 30
0.0000000000000009
 40
0.3125
  0
LINE
  5
6C
330
1F
100
AcDbEntity
  8
Layer 04
100
AcDbLine
 10
-26.64776347695516
 20
3.320252675225163
 30
0.0000000000000009
 11
-26.64776347695516
 21
3.320252675225163
 31
-0.3124999999999991
  0
CIRCLE
  5
6D
330
1F
100
AcDbEntity
  8
Layer 04
100
AcDbCircle
 10
-26.96026347695516
 20
3.320252675225166
 30
-0.3124999999999991
 40
0.3125
  0
CIRCLE
  5
6E
330
1F
100
AcDbEntity
  8
Layer 04
100
AcDbCircle
 10
-7.805626426998401
 20
-8.304747324656976
 30
0.0
 40
0.3125
  0
LINE
  5
6F
330
1F
100
AcDbEntity
  8
Layer 04
100
AcDbLine
 10
-7.493126426998401
 20
-8.304747324656976
 30
0.0
 11
-7.493126426998401
 21
-8.304747324656976
 31
-0.3125
  0
CIRCLE
  5
70
330
1F
100
AcDbEntity
  8
Layer 04
100
AcDbCircle
 10
-7.805626426998401
 20
-8.304747324656976
 30
-0.3125
 40
0.3125
  0
CIRCLE
  5
71
330
1F
100
AcDbEntity
  8
Layer 04
100
AcDbCircle
 10
-7.805626426998401
 20
-8.304747324656976
 30
0.0
 40
0.3125
  0
LINE
  5
72
330
1F
100
AcDbEntity
  8
Layer 04
100
AcDbLine
 10
-7.493126426998401
 20
-8.304747324656976
 30
0.0
 11
-7.493126426998401
 21
-8.304747324656976
 31
-0.3125
  0
CIRCLE
  5
73
330
1F
100
AcDbEntity
  8
Layer 04
100
AcDbCircle
 10
-7.805626426998401
 20
-8.304747324656976
 30
-0.3125
 40
0.3125
  0
CIRCLE
  5
74
330
1F
100
AcDbEntity
  8
Layer 04
100
AcDbCircle
 10
-7.805626428357697
 20
14.94525267441857
 30
0.0
 40
0.3124999999999991
  0
LINE
  5
75
330
1F
100
AcDbEntity
  8
Layer 04
100
AcDbLine
 10
-7.493126428357698
 20
14.94525267441857
 30
0.0
 11
-7.493126428357698
 21
14.94525267441857
 31
-0.3125
  0
CIRCLE
  5
76
330
1F
100
AcDbEntity
  8
Layer 04
100
AcDbCircle
 10
-7.805626428357697
 20
14.94525267441857
 30
-0.3125
 40
0.3124999999999991
  0
CIRCLE
  5
77
330
1F
100
AcDbEntity
  8
Layer 04
100
AcDbCircle
 10
20.57898895625931
 20
14.94525267443542
 30
0.0
 40
0.3125000000000036
  0
LINE
  5
78
330
1F
100
AcDbEntity
  8
Layer 04
100
AcDbLine
 10
20.89148895625931
 20
14.94525267443542
 30
0.0
 11
20.89148895625931
 21
14.94525267443542
 31
-0.3125
  0
CIRCLE
  5
79
330
1F
100
AcDbEntity
  8
Layer 04
100
AcDbCircle
 10
20.57898895625931
 20
14.94525267443542
 30
-0.3125
 40
0.3125000000000036
  0
CIRCLE
  5
7A
330
1F
100
AcDbEntity
  8
Layer 04
100
AcDbCircle
 10
20.57898895761861
 20
-8.304747324640122
 30
0.0
 40
0.3125
  0
LINE
  5
7B
330
1F
100
AcDbEntity
  8
Layer 04
100
AcDbLine
 10
20.89148895761861
 20
-8.304747324640122
 30
0.0
 11
20.89148895761861
 21
-8.304747324640122
 31
-0.3125
  0
CIRCLE
  5
7C
330
1F
100
AcDbEntity
  8
Layer 04
100
AcDbCircle
 10
20.57898895761861
 20
-8.304747324640122
 30
-0.3125
 40
0.3125
  0
CIRCLE
  5
7E
330
1F
100
AcDbEntity
  8
Default
100
AcDbCircle
 10
-26.96026347695517
 20
3.320252675225166
 30
0.0000000000000009
 40
0.3124999999999964
  0
LINE
  5
7F
330
1F
100
AcDbEntity
  8
Default
100
AcDbLine
 10
-26.96026347695516
 20
3.632752675225163
 30
-0.00000000000537
 11
-26.9602634770161
 21
3.632752675359882
 31
7.838542102918323
  0
CIRCLE
  5
80
330
1F
100
AcDbEntity
  8
Default
100
AcDbCircle
 10
-26.9602634770161
 20
3.320252675359882
 30
7.838542102923694
 40
0.3125
  0
CIRCLE
  5
81
330
1F
100
AcDbEntity
  8
Default
100
AcDbCircle
 10
-7.805626426998401
 20
-8.304747324656976
 30
0.0
 40
0.3125
  0
LINE
  5
82
330
1F
100
AcDbEntity
  8
Default
100
AcDbLine
 10
-7.493126426998401
 20
-8.304747324656976
 30
0.0
 11
-7.493126426998401
 21
-8.304747324656976
 31
14.3125
  0
CIRCLE
  5
83
330
1F
100
AcDbEntity
  8
Default
100
AcDbCircle
 10
-7.805626426998401
 20
-8.304747324656976
 30
14.3125
 40
0.3125
  0
CIRCLE
  5
84
330
1F
100
AcDbEntity
  8
Default
100
AcDbCircle
 10
-7.805626709925035
 20
14.94525269758347
 30
0.0
 40
0.3124999999999991
  0
LINE
  5
85
330
1F
100
AcDbEntity
  8
Default
100
AcDbLine
 10
-7.493126709925036
 20
14.94525269758347
 30
0.0
 11
-7.493126709925036
 21
14.94525269758347
 31
14.3125
  0
CIRCLE
  5
86
330
1F
100
AcDbEntity
  8
Default
100
AcDbCircle
 10
-7.805626709925035
 20
14.94525269758347
 30
14.3125
 40
0.3124999999999991
  0
CIRCLE
  5
87
330
1F
100
AcDbEntity
  8
Default
100
AcDbCircle
 10
20.57898895625931
 20
14.94525267443542
 30
0.0
 40
0.3125
  0
LINE
  5
88
330
1F
100
AcDbEntity
  8
Default
100
AcDbLine
 10
20.89148895625931
 20
14.94525267443542
 30
0.0
 11
20.89148895625931
 21
14.94525267443542
 31
14.3125
  0
CIRCLE
  5
89
330
1F
100
AcDbEntity
  8
Default
100
AcDbCircle
 10
20.57898895625931
 20
14.94525267443542
 30
14.3125
 40
0.3125
  0
CIRCLE
  5
8A
330
1F
100
AcDbEntity
  8
Default
100
AcDbCircle
 10
20.57898895761861
 20
-8.304747324640122
 30
0.0
 40
0.3125
  0
LINE
  5
8B
330
1F
100
AcDbEntity
  8
Default
100
AcDbLine
 10
20.89148895761861
 20
-8.304747324640122
 30
0.0
 11
20.89148895761861
 21
-8.304747324640122
 31
7.731085854420392
  0
CIRCLE
  5
8C
330
1F
100
AcDbEntity
  8
Default
100
AcDbCircle
 10
20.57898895761861
 20
-8.304747324640122
 30
7.731085854420392
 40
0.3125
  0
CIRCLE
  5
8D
330
1F
100
AcDbEntity
  8
Layer 04
100
AcDbCircle
 10
39.125
 20
12.125
 30
0.0
 40
0.3125
  0
CIRCLE
  5
8F
330
1F
100
AcDbEntity
  8
FRAME
100
AcDbCircle
 10
-20.57898895761738
 20
11.63073073306039
 30
12.00222172645258
 40
0.1875000000000011
210
7.796232795145478E-14
220
0.9536726432034295
230
-0.3008462890005199
  0
ARC
  5
90
330
1F
100
AcDbEntity
  8
FRAME
100
AcDbCircle
 10
-20.57898895761704
 20
11.63073073306161
 30
-12.3772130701059
 40
0.1874999999999504
210
6.753865561291103E-15
220
0.9536726432034862
230
-0.3008462890003396
100
AcDbArc
 50
201.5044528239224
 51
270.0000000000076
  0
SPLINE
  5
91
330
1F
100
AcDbEntity
  8
FRAME
100
AcDbSpline
210
0.0
220
0.0
230
1.0
 70
     8
 71
     3
 72
    25
 73
    21
 74
     0
 42
0.000000001
 43
0.0000000001
 40
0.0
 40
0.0
 40
0.0
 40
0.0
 40
0.2291004137557692
 40
0.2291004137557692
 40
0.2291004137557692
 40
0.6002263048218328
 40
0.6002263048218328
 40
0.789375089644811
 40
0.789375089644811
 40
0.9311301617861224
 40
0.9311301617861224
 40
0.9311301617861224
 40
1.072885233927375
 40
1.072885233927375
 40
1.262034018750405
 40
1.262034018750405
 40
1.633159909816374
 40
1.633159909816374
 40
1.633159909816374
 40
1.862260323572229
 40
1.862260323572229
 40
1.862260323572229
 40
1.862260323572229
 10
20.40454100474153
 20
-8.325425253555157
 30
14.74999999999999
 10
20.3956370852722
 20
-8.250307916953918
 30
14.74999999999999
 10
20.39148895761696
 20
-8.172587241504662
 30
14.74999999999999
 10
20.39148895761696
 20
-8.09696128306604
 30
14.74999999999999
 10
20.39148895761696
 20
-7.988695733314533
 30
14.74999999999999
 10
20.40005122379443
 20
-7.872285726518218
 30
14.74999999999999
 10
20.4304021903576
 20
-7.711468329169012
 30
14.74999999999999
 10
20.44503383350445
 20
-7.652661562292966
 30
14.74999999999998
 10
20.48063399075807
 20
-7.56253724426438
 30
14.74999999999998
 10
20.52043341997262
 20
-7.473719425495037
 30
14.74999999999999
 10
20.57898895761701
 20
-7.473719425495037
 30
14.74999999999999
 10
20.63754449526141
 20
-7.473719425495037
 30
14.75
 10
20.67734392447596
 20
-7.562537244264437
 30
14.74999999999998
 10
20.71294408172957
 20
-7.652661562293051
 30
14.74999999999999
 10
20.72757572487637
 20
-7.711468329168927
 30
14.74999999999999
 10
20.75792669143948
 20
-7.872285726518161
 30
14.74999999999999
 10
20.76648895761701
 20
-7.988695733314447
 30
14.75
 10
20.76648895761696
 20
-8.096961283065983
 30
14.75
 10
20.76648895761696
 20
-8.172587241504207
 30
14.75
 10
20.76234082996166
 20
-8.250307916954458
 30
14.75
 10
20.75343691049238
 20
-8.325425253555185
 30
14.75
  0
ARC
  5
92
330
1F
100
AcDbEntity
  8
FRAME
100
AcDbCircle
 10
-20.57898895761844
 20
11.63073073306309
 30
-12.37721307010225
 40
0.1874999999999981
210
1.667746100194158E-13
220
0.953672643203496
230
-0.3008462890003092
100
AcDbArc
 50
270.0000000000065
 51
338.4955471760671
  0
LINE
  5
93
330
1F
100
AcDbEntity
  8
FRAME
100
AcDbLine
 10
20.57898895761861
 20
14.8888440183959
 30
7.302272233819748
 11
20.57898895761696
 21
-8.12583443097228
 31
14.5625
  0
LINE
  5
94
330
1F
100
AcDbEntity
  8
FRAME
100
AcDbLine
 10
20.57898895761696
 20
-8.12583443097228
 30
14.5625
 11
20.57898895761696
 21
-8.361156003844545
 31
14.63673472029414
  0
CIRCLE
  5
95
330
1F
100
AcDbEntity
  8
FRAME
100
AcDbCircle
 10
-20.57898895761763
 20
11.63073073305985
 30
-0.1874956718277518
 40
0.1875000000000013
210
4.184307221698332E-14
220
0.9536726432034295
230
-0.3008462890005199
  0
LINE
  5
96
330
1F
100
AcDbEntity
  8
FRAME
100
AcDbLine
 10
20.76648895761861
 20
14.94525269758348
 30
7.481085854420396
 11
20.76648895761697
 21
-8.096961283066017
 31
14.75
  0
LINE
  5
97
330
1F
100
AcDbEntity
  8
FRAME
100
AcDbLine
 10
20.57898895761861
 20
15.0016613767711
 30
7.659899475021037
 11
20.57898895761701
 21
-7.473719425495061
 31
14.75
  0
LINE
  5
98
330
1F
100
AcDbEntity
  8
FRAME
100
AcDbLine
 10
20.39148895761861
 20
14.94525269758351
 30
7.481085854420389
 11
20.39148895761697
 21
-8.096961283066037
 31
14.75
  0
CIRCLE
  5
99
330
1F
100
AcDbEntity
  8
FRAME
100
AcDbCircle
 10
14.9452526914722
 20
11.99835155181918
 30
18.31668615324154
 40
0.1875000000000002
210
0.973382944253088
220
-7.621099800619244E-10
230
-0.2291847373565472
  0
LINE
  5
9A
330
1F
100
AcDbEntity
  8
FRAME
100
AcDbLine
 10
20.53601681936425
 20
14.94525267535988
 30
7.298576552372938
 11
-7.84859884817939
 21
14.94525269758347
 31
13.9817845591913
  0
CIRCLE
  5
9B
330
1F
100
AcDbEntity
  8
FRAME
100
AcDbCircle
 10
14.94525269147209
 20
11.99835155181927
 30
-10.84410388846626
 40
0.1874999999999978
210
0.9733829442530868
220
-7.621053417968465E-10
230
-0.2291847373565528
  0
LINE
  5
9C
330
1F
100
AcDbEntity
  8
FRAME
100
AcDbLine
 10
-7.80562642699681
 20
-8.304747324640122
 30
7.481085854420392
 11
20.57898895761861
 21
-8.304747324640122
 31
7.481085854420392
  0
LINE
  5
9D
330
1F
100
AcDbEntity
  8
FRAME
100
AcDbLine
 10
20.57898895761861
 20
-8.304747324640122
 30
7.481085854420392
 11
20.57898895761861
 21
14.94525267535988
 31
7.481085854420392
  0
LINE
  5
9E
330
1F
100
AcDbEntity
  8
FRAME
100
AcDbLine
 10
-7.80562642699681
 20
-8.304747324640122
 30
7.481085854420392
 11
-7.80562642699681
 21
14.94525267535988
 31
7.481085854420392
  0
LINE
  5
9F
330
1F
100
AcDbEntity
  8
FRAME
100
AcDbLine
 10
-7.80562642699681
 20
14.94525267535988
 30
7.481085854420392
 11
20.57898895761861
 21
14.94525267535988
 31
7.481085854420392
  0
CIRCLE
  5
A0
330
1F
100
AcDbEntity
  8
FRAME
100
AcDbCircle
 10
-8.304747324640122
 20
7.481085854420392
 30
-7.80562642699681
 40
0.25
210
1.0
220
0.0
230
0.0
  0
LINE
  5
A1
330
1F
100
AcDbEntity
  8
FRAME
100
AcDbLine
 10
-7.80562642699681
 20
-8.054747324640122
 30
7.481085854420392
 11
20.57898895761861
 21
-8.054747324640122
 31
7.481085854420392
  0
CIRCLE
  5
A2
330
1F
100
AcDbEntity
  8
FRAME
100
AcDbCircle
 10
-8.304747324640122
 20
7.481085854420392
 30
20.57898895761861
 40
0.25
210
1.0
220
0.0
230
0.0
  0
CIRCLE
  5
A3
330
1F
100
AcDbEntity
  8
FRAME
100
AcDbCircle
 10
7.805626426996809
 20
7.481085854420392
 30
-8.304747324640122
 40
0.2500000000000009
210
0.0
220
1.0
230
0.0
  0
LINE
  5
A4
330
1F
100
AcDbEntity
  8
FRAME
100
AcDbLine
 10
-7.80562642699681
 20
-8.304747324640122
 30
7.731085854420392
 11
-7.80562642699681
 21
14.94525267535988
 31
7.731085854420392
  0
CIRCLE
  5
A5
330
1F
100
AcDbEntity
  8
FRAME
100
AcDbCircle
 10
7.805626426996809
 20
7.481085854420392
 30
14.94525267535988
 40
0.2500000000000009
210
0.0
220
1.0
230
0.0
  0
CIRCLE
  5
A6
330
1F
100
AcDbEntity
  8
FRAME
100
AcDbCircle
 10
14.94525267535988
 20
7.481085854420392
 30
-7.80562642699681
 40
0.25
210
1.0
220
0.0
230
0.0
  0
LINE
  5
A7
330
1F
100
AcDbEntity
  8
FRAME
100
AcDbLine
 10
-7.80562642699681
 20
15.19525267535988
 30
7.481085854420392
 11
20.57898895761861
 21
15.19525267535988
 31
7.481085854420392
  0
CIRCLE
  5
A8
330
1F
100
AcDbEntity
  8
FRAME
100
AcDbCircle
 10
14.94525267535988
 20
7.481085854420392
 30
20.57898895761861
 40
0.25
210
1.0
220
0.0
230
0.0
  0
CIRCLE
  5
A9
330
1F
100
AcDbEntity
  8
FRAME
100
AcDbCircle
 10
-20.57898895761861
 20
7.481085854420392
 30
-8.304747324640122
 40
0.25
210
0.0
220
1.0
230
0.0
  0
LINE
  5
AA
330
1F
100
AcDbEntity
  8
FRAME
100
AcDbLine
 10
20.57898895761861
 20
-8.304747324640122
 30
7.731085854420392
 11
20.57898895761861
 21
14.94525267535988
 31
7.731085854420392
  0
CIRCLE
  5
AB
330
1F
100
AcDbEntity
  8
FRAME
100
AcDbCircle
 10
-20.57898895761861
 20
7.481085854420392
 30
14.94525267535988
 40
0.25
210
0.0
220
1.0
230
0.0
  0
LINE
  5
AC
330
1F
100
AcDbEntity
  8
FRAME
100
AcDbLine
 10
20.57898895761861
 20
-8.304747324640122
 30
0.0
 11
20.57898895761861
 21
-8.304747324640122
 31
7.731085854420392
  0
LINE
  5
AD
330
1F
100
AcDbEntity
  8
FRAME
100
AcDbLine
 10
20.57898895625931
 20
14.94525267443542
 30
0.0
 11
20.57898895625931
 21
14.94525267443542
 31
14.3125
  0
LINE
  5
AE
330
1F
100
AcDbEntity
  8
FRAME
100
AcDbLine
 10
-7.805626709925036
 20
14.94525269758347
 30
0.0
 11
-7.805626709925036
 21
14.94525269758347
 31
14.3125
  0
LINE
  5
AF
330
1F
100
AcDbEntity
  8
FRAME
100
AcDbLine
 10
-7.805626426998401
 20
-8.304747324656976
 30
0.0
 11
-7.805626426998401
 21
-8.304747324656976
 31
14.3125
  0
LINE
  5
B0
330
1F
100
AcDbEntity
  8
FRAME
100
AcDbLine
 10
8.213911869107562
 20
-7.984461806870119
 30
7.712078056973841
 11
6.453988957618606
 21
-7.983013035004408
 31
7.712078056973841
  0
LINE
  5
B1
330
1F
100
AcDbEntity
  8
FRAME
100
AcDbLine
 10
6.453988957618606
 20
-7.983013035004408
 30
7.712078056973841
 11
6.453988957618606
 21
-7.983013035004408
 31
7.524578056973841
  0
LINE
  5
B2
330
1F
100
AcDbEntity
  8
FRAME
100
AcDbLine
 10
8.213911869107562
 20
-7.984461806870119
 30
7.524578056973841
 11
6.453988957618606
 21
-7.983013035004408
 31
7.524578056973841
  0
LINE
  5
B3
330
1F
100
AcDbEntity
  8
FRAME
100
AcDbLine
 10
8.213911869107562
 20
-7.984461806870119
 30
7.712078056973841
 11
8.213911869107562
 21
-7.984461806870119
 31
7.524578056973841
  0
LINE
  5
B4
330
1F
100
AcDbEntity
  8
FRAME
100
AcDbLine
 10
6.453988957618606
 20
-7.983013035004408
 30
7.712078056973841
 11
20.21601247688126
 21
5.879661112455491
 31
7.712078056973841
  0
LINE
  5
B5
330
1F
100
AcDbEntity
  8
FRAME
100
AcDbLine
 10
20.21601247688126
 20
5.879661112455491
 30
7.712078056973841
 11
20.21601247688126
 21
5.879661112455491
 31
7.524578056973841
  0
LINE
  5
B6
330
1F
100
AcDbEntity
  8
FRAME
100
AcDbLine
 10
6.453988957618606
 20
-7.983013035004408
 30
7.524578056973841
 11
20.21601247688126
 21
5.879661112455491
 31
7.524578056973841
  0
LINE
  5
B7
330
1F
100
AcDbEntity
  8
FRAME
100
AcDbLine
 10
20.21601247688126
 20
5.879661112455491
 30
7.712078056973841
 11
20.21601247688126
 21
4.10541796827442
 31
7.712078056973841
  0
LINE
  5
B8
330
1F
100
AcDbEntity
  8
FRAME
100
AcDbLine
 10
20.21601247688126
 20
4.10541796827442
 30
7.712078056973841
 11
20.21601247688126
 21
4.10541796827442
 31
7.524578056973841
  0
LINE
  5
B9
330
1F
100
AcDbEntity
  8
FRAME
100
AcDbLine
 10
20.21601247688126
 20
5.879661112455491
 30
7.524578056973841
 11
20.21601247688126
 21
4.10541796827442
 31
7.524578056973841
  0
LINE
  5
BA
330
1F
100
AcDbEntity
  8
FRAME
100
AcDbLine
 10
20.21601247688126
 20
4.10541796827442
 30
7.712078056973841
 11
8.213911869107562
 21
-7.984461806870119
 31
7.712078056973841
  0
LINE
  5
BB
330
1F
100
AcDbEntity
  8
FRAME
100
AcDbLine
 10
20.21601247688126
 20
4.10541796827442
 30
7.524578056973841
 11
8.213911869107562
 21
-7.984461806870119
 31
7.524578056973841
  0
LINE
  5
BC
330
1F
100
AcDbEntity
  8
FRAME
100
AcDbLine
 10
-16.29601104238139
 20
-8.929747324640122
 30
14.5
 11
21.20398895761861
 21
-8.929747324640122
 31
14.5
  0
LINE
  5
BD
330
1F
100
AcDbEntity
  8
FRAME
100
AcDbLine
 10
-15.04601104238139
 20
-7.679747324640122
 30
14.5
 11
-15.04601104238139
 21
14.32025267535987
 31
14.5
  0
LINE
  5
BE
330
1F
100
AcDbEntity
  8
FRAME
100
AcDbLine
 10
-16.29601104238139
 20
15.57025267535988
 30
14.5
 11
-16.29601104238139
 21
-8.929747324640122
 31
14.5
  0
LINE
  5
BF
330
1F
100
AcDbEntity
  8
FRAME
100
AcDbLine
 10
21.20398895761861
 20
15.57025267535988
 30
14.5
 11
-16.29601104238139
 21
15.57025267535988
 31
14.5
  0
LINE
  5
C0
330
1F
100
AcDbEntity
  8
FRAME
100
AcDbLine
 10
21.20398895761861
 20
-8.929747324640122
 30
14.5
 11
21.20398895761861
 21
15.57025267535988
 31
14.5
  0
LINE
  5
C1
330
1F
100
AcDbEntity
  8
FRAME
100
AcDbLine
 10
19.95398895761861
 20
-7.679747324640122
 30
14.5
 11
-15.04601104238139
 21
-7.679747324640122
 31
14.5
  0
LINE
  5
C2
330
1F
100
AcDbEntity
  8
FRAME
100
AcDbLine
 10
19.95398895761861
 20
14.32025267535987
 30
14.5
 11
19.95398895761861
 21
-7.679747324640122
 31
14.5
  0
LINE
  5
C3
330
1F
100
AcDbEntity
  8
FRAME
100
AcDbLine
 10
-15.04601104238139
 20
14.32025267535987
 30
14.5
 11
19.95398895761861
 21
14.32025267535987
 31
14.5
  0
LINE
  5
C4
330
1F
100
AcDbEntity
  8
FRAME
100
AcDbLine
 10
-16.29601104238139
 20
-8.929747324640122
 30
14.5
 11
-16.29601104238139
 21
-8.929747324640122
 31
14.3125
  0
LINE
  5
C5
330
1F
100
AcDbEntity
  8
FRAME
100
AcDbLine
 10
-16.29601104238139
 20
-8.929747324640122
 30
14.3125
 11
21.20398895761861
 21
-8.929747324640122
 31
14.3125
  0
LINE
  5
C6
330
1F
100
AcDbEntity
  8
FRAME
100
AcDbLine
 10
21.20398895761861
 20
-8.929747324640122
 30
14.3125
 11
21.20398895761861
 21
-8.929747324640122
 31
14.5
  0
LINE
  5
C7
330
1F
100
AcDbEntity
  8
FRAME
100
AcDbLine
 10
21.20398895761861
 20
-8.929747324640122
 30
14.3125
 11
21.20398895761861
 21
15.57025267535988
 31
14.3125
  0
LINE
  5
C8
330
1F
100
AcDbEntity
  8
FRAME
100
AcDbLine
 10
21.20398895761861
 20
15.57025267535988
 30
14.3125
 11
21.20398895761861
 21
15.57025267535988
 31
14.5
  0
LINE
  5
C9
330
1F
100
AcDbEntity
  8
FRAME
100
AcDbLine
 10
21.20398895761861
 20
15.57025267535988
 30
14.3125
 11
-16.29601104238139
 21
15.57025267535988
 31
14.3125
  0
LINE
  5
CA
330
1F
100
AcDbEntity
  8
FRAME
100
AcDbLine
 10
-16.29601104238139
 20
15.57025267535988
 30
14.3125
 11
-16.29601104238139
 21
15.57025267535988
 31
14.5
  0
LINE
  5
CB
330
1F
100
AcDbEntity
  8
FRAME
100
AcDbLine
 10
-16.29601104238139
 20
15.57025267535988
 30
14.3125
 11
-16.29601104238139
 21
-8.929747324640122
 31
14.3125
  0
LINE
  5
CC
330
1F
100
AcDbEntity
  8
FRAME
100
AcDbLine
 10
-15.04601104238139
 20
-7.679747324640122
 30
14.5
 11
-15.04601104238139
 21
-7.679747324640122
 31
14.3125
  0
LINE
  5
CD
330
1F
100
AcDbEntity
  8
FRAME
100
AcDbLine
 10
-15.04601104238139
 20
-7.679747324640122
 30
14.3125
 11
-15.04601104238139
 21
14.32025267535987
 31
14.3125
  0
LINE
  5
CE
330
1F
100
AcDbEntity
  8
FRAME
100
AcDbLine
 10
-15.04601104238139
 20
14.32025267535987
 30
14.3125
 11
-15.04601104238139
 21
14.32025267535987
 31
14.5
  0
LINE
  5
CF
330
1F
100
AcDbEntity
  8
FRAME
100
AcDbLine
 10
-15.04601104238139
 20
14.32025267535987
 30
14.3125
 11
19.95398895761861
 21
14.32025267535987
 31
14.3125
  0
LINE
  5
D0
330
1F
100
AcDbEntity
  8
FRAME
100
AcDbLine
 10
19.95398895761861
 20
14.32025267535987
 30
14.3125
 11
19.95398895761861
 21
14.32025267535987
 31
14.5
  0
LINE
  5
D1
330
1F
100
AcDbEntity
  8
FRAME
100
AcDbLine
 10
19.95398895761861
 20
14.32025267535987
 30
14.3125
 11
19.95398895761861
 21
-7.679747324640122
 31
14.3125
  0
LINE
  5
D2
330
1F
100
AcDbEntity
  8
FRAME
100
AcDbLine
 10
19.95398895761861
 20
-7.679747324640122
 30
14.3125
 11
19.95398895761861
 21
-7.679747324640122
 31
14.5
  0
LINE
  5
D3
330
1F
100
AcDbEntity
  8
FRAME
100
AcDbLine
 10
19.95398895761861
 20
-7.679747324640122
 30
14.3125
 11
-15.04601104238139
 21
-7.679747324640122
 31
14.3125
  0
LINE
  5
D4
330
1F
100
AcDbEntity
  8
FRAME
100
AcDbLine
 10
-16.29601104238139
 20
3.320252675359878
 30
14.5
 11
-15.04601104238139
 21
3.320252675359878
 31
14.5
  0
LINE
  5
D5
330
1F
100
AcDbEntity
  8
FRAME
100
AcDbLine
 10
19.95398895761863
 20
3.320252675359878
 30
14.5
 11
21.20398895761863
 21
3.320252675359878
 31
14.5
  0
LINE
  5
D6
330
1F
100
AcDbEntity
  8
FRAME
100
AcDbLine
 10
2.453988957618616
 20
-8.929747324640122
 30
14.5
 11
2.453988957618616
 21
-7.679747324640123
 31
14.5
  0
LINE
  5
D7
330
1F
100
AcDbEntity
  8
FRAME
100
AcDbLine
 10
2.453988957618616
 20
14.32025267535988
 30
14.5
 11
2.453988957618616
 21
15.57025267535988
 31
14.5
  0
LINE
  5
D8
330
1F
100
AcDbEntity
  8
FRAME
100
AcDbLine
 10
21.20398895761861
 20
-8.929747324640118
 30
14.40625
 11
-16.29601104238139
 21
-8.929747324640118
 31
14.40625
  0
LINE
  5
D9
330
1F
100
AcDbEntity
  8
FRAME
100
AcDbLine
 10
2.453988957618606
 20
-8.929747324640118
 30
14.5
 11
2.453988957618606
 21
-8.929747324640118
 31
14.3125
  0
LINE
  5
DA
330
1F
100
AcDbEntity
  8
FRAME
100
AcDbLine
 10
21.20398895761861
 20
15.57025267535988
 30
14.40625
 11
21.20398895761861
 21
-8.929747324640122
 31
14.40625
  0
LINE
  5
DB
330
1F
100
AcDbEntity
  8
FRAME
100
AcDbLine
 10
21.20398895761861
 20
3.32025267535988
 30
14.5
 11
21.20398895761861
 21
3.32025267535988
 31
14.3125
  0
LINE
  5
DC
330
1F
100
AcDbEntity
  8
FRAME
100
AcDbLine
 10
-16.29601104238139
 20
15.57025267535988
 30
14.40625
 11
21.20398895761861
 21
15.57025267535988
 31
14.40625
  0
LINE
  5
DD
330
1F
100
AcDbEntity
  8
FRAME
100
AcDbLine
 10
2.453988957618606
 20
15.57025267535988
 30
14.5
 11
2.453988957618606
 21
15.57025267535988
 31
14.3125
  0
LINE
  5
DE
330
1F
100
AcDbEntity
  8
FRAME
100
AcDbLine
 10
-16.29601104238139
 20
-8.929747324640118
 30
14.40625
 11
-16.29601104238139
 21
15.57025267535989
 31
14.40625
  0
LINE
  5
DF
330
1F
100
AcDbEntity
  8
FRAME
100
AcDbLine
 10
-16.29601104238139
 20
3.320252675359884
 30
14.5
 11
-16.29601104238139
 21
3.320252675359884
 31
14.3125
  0
LINE
  5
E0
330
1F
100
AcDbEntity
  8
FRAME
100
AcDbLine
 10
-15.04601104238139
 20
14.32025267535994
 30
14.40625
 11
-15.04601104238139
 21
-7.679747324640051
 31
14.40625
  0
LINE
  5
E1
330
1F
100
AcDbEntity
  8
FRAME
100
AcDbLine
 10
-15.04601104238139
 20
3.320252675359944
 30
14.5
 11
-15.04601104238139
 21
3.320252675359944
 31
14.3125
  0
LINE
  5
E2
330
1F
100
AcDbEntity
  8
FRAME
100
AcDbLine
 10
19.95398895761861
 20
14.32025267535994
 30
14.40625
 11
-15.04601104238139
 21
14.32025267535994
 31
14.40625
  0
LINE
  5
E3
330
1F
100
AcDbEntity
  8
FRAME
100
AcDbLine
 10
2.453988957618609
 20
14.32025267535994
 30
14.5
 11
2.453988957618609
 21
14.32025267535994
 31
14.3125
  0
LINE
  5
E4
330
1F
100
AcDbEntity
  8
FRAME
100
AcDbLine
 10
19.95398895761861
 20
-7.679747324640118
 30
14.40625
 11
19.95398895761861
 21
14.32025267535987
 31
14.40625
  0
LINE
  5
E5
330
1F
100
AcDbEntity
  8
FRAME
100
AcDbLine
 10
19.95398895761861
 20
3.320252675359876
 30
14.5
 11
19.95398895761861
 21
3.320252675359876
 31
14.3125
  0
LINE
  5
E6
330
1F
100
AcDbEntity
  8
FRAME
100
AcDbLine
 10
-15.04601104238139
 20
-7.679747324640118
 30
14.40625
 11
19.95398895761861
 21
-7.679747324640118
 31
14.40625
  0
LINE
  5
E7
330
1F
100
AcDbEntity
  8
FRAME
100
AcDbLine
 10
2.453988957618606
 20
-7.679747324640118
 30
14.5
 11
2.453988957618606
 21
-7.679747324640118
 31
14.3125
  0
LINE
  5
E8
330
1F
100
AcDbEntity
  8
FRAME
100
AcDbLine
 10
-16.29601104238139
 20
3.320252675359878
 30
14.3125
 11
-15.04601104238139
 21
3.320252675359878
 31
14.3125
  0
LINE
  5
E9
330
1F
100
AcDbEntity
  8
FRAME
100
AcDbLine
 10
19.95398895761863
 20
3.320252675359878
 30
14.3125
 11
21.20398895761863
 21
3.320252675359878
 31
14.3125
  0
LINE
  5
EA
330
1F
100
AcDbEntity
  8
FRAME
100
AcDbLine
 10
2.453988957618616
 20
-8.929747324640122
 30
14.3125
 11
2.453988957618616
 21
-7.679747324640123
 31
14.3125
  0
LINE
  5
EB
330
1F
100
AcDbEntity
  8
FRAME
100
AcDbLine
 10
2.453988957618616
 20
14.32025267535988
 30
14.3125
 11
2.453988957618616
 21
15.57025267535988
 31
14.3125
  0
LINE
  5
EC
330
1F
100
AcDbEntity
  8
FRAME
100
AcDbLine
 10
-16.29601104238139
 20
-8.929747324640122
 30
14.5
 11
21.20398895761861
 21
-8.929747324640122
 31
14.5
  0
LINE
  5
ED
330
1F
100
AcDbEntity
  8
FRAME
100
AcDbLine
 10
-15.04601104238139
 20
-7.679747324640122
 30
14.5
 11
-15.04601104238139
 21
14.32025267535987
 31
14.5
  0
LINE
  5
EE
330
1F
100
AcDbEntity
  8
FRAME
100
AcDbLine
 10
-16.29601104238139
 20
15.57025267535988
 30
14.5
 11
-16.29601104238139
 21
-8.929747324640122
 31
14.5
  0
LINE
  5
EF
330
1F
100
AcDbEntity
  8
FRAME
100
AcDbLine
 10
21.20398895761861
 20
15.57025267535988
 30
14.5
 11
-16.29601104238139
 21
15.57025267535988
 31
14.5
  0
LINE
  5
F0
330
1F
100
AcDbEntity
  8
FRAME
100
AcDbLine
 10
21.20398895761861
 20
-8.929747324640122
 30
14.5
 11
21.20398895761861
 21
15.57025267535988
 31
14.5
  0
LINE
  5
F1
330
1F
100
AcDbEntity
  8
FRAME
100
AcDbLine
 10
19.95398895761861
 20
-7.679747324640122
 30
14.5
 11
-15.04601104238139
 21
-7.679747324640122
 31
14.5
  0
LINE
  5
F2
330
1F
100
AcDbEntity
  8
FRAME
100
AcDbLine
 10
19.95398895761861
 20
14.32025267535987
 30
14.5
 11
19.95398895761861
 21
-7.679747324640122
 31
14.5
  0
LINE
  5
F3
330
1F
100
AcDbEntity
  8
FRAME
100
AcDbLine
 10
-15.04601104238139
 20
14.32025267535987
 30
14.5
 11
19.95398895761861
 21
14.32025267535987
 31
14.5
  0
LINE
  5
F4
330
1F
100
AcDbEntity
  8
FRAME
100
AcDbLine
 10
-16.29601104238139
 20
3.320252675359878
 30
14.5
 11
-15.04601104238139
 21
3.320252675359878
 31
14.5
  0
LINE
  5
F5
330
1F
100
AcDbEntity
  8
FRAME
100
AcDbLine
 10
19.95398895761863
 20
3.320252675359878
 30
14.5
 11
21.20398895761863
 21
3.320252675359878
 31
14.5
  0
LINE
  5
F6
330
1F
100
AcDbEntity
  8
FRAME
100
AcDbLine
 10
2.453988957618616
 20
-8.929747324640122
 30
14.5
 11
2.453988957618616
 21
-7.679747324640123
 31
14.5
  0
LINE
  5
F7
330
1F
100
AcDbEntity
  8
FRAME
100
AcDbLine
 10
2.453988957618616
 20
14.32025267535988
 30
14.5
 11
2.453988957618616
 21
15.57025267535988
 31
14.5
  0
LINE
  5
F8
330
1F
100
AcDbEntity
  8
FRAME
100
AcDbLine
 10
-26.96026347695516
 20
3.320252675225163
 30
0.0000000000000009
 11
-26.9602634770161
 21
3.320252675359882
 31
7.838542102923694
  0
LINE
  5
F9
330
1F
100
AcDbEntity
  8
FRAME
100
AcDbLine
 10
-7.891719721709649
 20
-5.727532491315802
 30
7.53854210290018
 11
-25.33164212914554
 21
3.320252675359878
 31
7.53854210290018
  0
LINE
  5
FA
330
1F
100
AcDbEntity
  8
FRAME
100
AcDbLine
 10
-25.33164212914554
 20
3.320252675359878
 30
7.53854210290018
 11
-25.33164212914554
 21
3.320252675359878
 31
7.72604210290018
  0
LINE
  5
FB
330
1F
100
AcDbEntity
  8
FRAME
100
AcDbLine
 10
-7.891719721709649
 20
-5.727532491315802
 30
7.72604210290018
 11
-25.33164212914554
 21
3.320252675359878
 31
7.72604210290018
  0
LINE
  5
FC
330
1F
100
AcDbEntity
  8
FRAME
100
AcDbLine
 10
-7.891719721709649
 20
-5.727532491315802
 30
7.53854210290018
 11
-7.891719721709649
 21
-5.727532491315802
 31
7.72604210290018
  0
LINE
  5
FD
330
1F
100
AcDbEntity
  8
FRAME
100
AcDbLine
 10
-25.33164212914554
 20
3.320252675359878
 30
7.53854210290018
 11
-7.891719721709649
 21
12.36803784203559
 31
7.53854210290018
  0
LINE
  5
FE
330
1F
100
AcDbEntity
  8
FRAME
100
AcDbLine
 10
-7.891719721709649
 20
12.36803784203559
 30
7.53854210290018
 11
-7.891719721709649
 21
12.36803784203559
 31
7.72604210290018
  0
LINE
  5
FF
330
1F
100
AcDbEntity
  8
FRAME
100
AcDbLine
 10
-25.33164212914554
 20
3.320252675359878
 30
7.72604210290018
 11
-7.891719721709649
 21
12.36803784203559
 31
7.72604210290018
  0
LINE
  5
100
330
1F
100
AcDbEntity
  8
FRAME
100
AcDbLine
 10
-7.891719721709649
 20
12.36803784203559
 30
7.53854210290018
 11
-7.891719721709649
 21
13.77624518472316
 31
7.53854210290018
  0
LINE
  5
101
330
1F
100
AcDbEntity
  8
FRAME
100
AcDbLine
 10
-7.891719721709649
 20
13.77624518472316
 30
7.53854210290018
 11
-7.891719721709649
 21
13.77624518472316
 31
7.72604210290018
  0
LINE
  5
102
330
1F
100
AcDbEntity
  8
FRAME
100
AcDbLine
 10
-7.891719721709649
 20
12.36803784203559
 30
7.72604210290018
 11
-7.891719721709649
 21
13.77624518472316
 31
7.72604210290018
  0
LINE
  5
103
330
1F
100
AcDbEntity
  8
FRAME
100
AcDbLine
 10
-7.891719721709649
 20
13.77624518472316
 30
7.53854210290018
 11
-27.19051957711497
 21
3.76407936270493
 31
7.53854210290018
  0
LINE
  5
104
330
1F
100
AcDbEntity
  8
FRAME
100
AcDbLine
 10
-27.19051957711497
 20
3.76407936270493
 30
7.53854210290018
 11
-27.19051957711497
 21
3.76407936270493
 31
7.72604210290018
  0
LINE
  5
105
330
1F
100
AcDbEntity
  8
FRAME
100
AcDbLine
 10
-7.891719721709649
 20
13.77624518472316
 30
7.72604210290018
 11
-27.19051957711497
 21
3.76407936270493
 31
7.72604210290018
  0
SPLINE
  5
106
330
1F
100
AcDbEntity
  8
FRAME
100
AcDbSpline
210
0.0
220
0.0
230
1.0
 70
    12
 71
     2
 72
     8
 73
     5
 74
     0
 42
0.000000001
 43
0.0000000001
 40
67.60137057187586
 40
67.60137057187586
 40
67.60137057187586
 40
68.38677078797537
 40
68.38677078797537
 40
68.69785456890953
 40
68.69785456890953
 40
68.69785456890953
 10
-27.19051957711497
 20
3.76407936270493
 30
7.53854210290018
 41
1.0
 10
-27.63434626446007
 20
3.53382326267646
 30
7.53854210290018
 41
0.7071067811865476
 10
-27.40409016443158
 20
3.089996575331408
 30
7.53854210290018
 41
1.0
 10
-27.33113850442467
 20
2.949379698761437
 30
7.53854210290018
 41
0.8839899352575135
 10
-27.19052196231347
 20
2.876427225449447
 30
7.538542102900178
 41
0.8598791311129838
  0
LINE
  5
107
330
1F
100
AcDbEntity
  8
FRAME
100
AcDbLine
 10
-27.19052196231347
 20
2.876427225449447
 30
7.538542102900179
 11
-27.19052196231347
 21
2.876427225449447
 31
7.726042102900179
  0
SPLINE
  5
108
330
1F
100
AcDbEntity
  8
FRAME
100
AcDbSpline
210
0.0
220
0.0
230
1.0
 70
    12
 71
     2
 72
     8
 73
     5
 74
     0
 42
0.000000001
 43
0.0000000001
 40
67.60137057187586
 40
67.60137057187586
 40
67.60137057187586
 40
68.38677078797537
 40
68.38677078797537
 40
68.69785456890953
 40
68.69785456890953
 40
68.69785456890953
 10
-27.19051957711497
 20
3.76407936270493
 30
7.72604210290018
 41
1.0
 10
-27.63434626446007
 20
3.53382326267646
 30
7.72604210290018
 41
0.7071067811865476
 10
-27.40409016443158
 20
3.089996575331408
 30
7.72604210290018
 41
1.0
 10
-27.33113850442467
 20
2.949379698761437
 30
7.726042102900179
 41
0.8839899352575135
 10
-27.19052196231347
 20
2.876427225449447
 30
7.726042102900179
 41
0.8598791311129838
  0
LINE
  5
109
330
1F
100
AcDbEntity
  8
FRAME
100
AcDbLine
 10
-27.19052196231347
 20
2.876427225449447
 30
7.538542102900179
 11
-7.891719721709648
 21
-7.135739834003394
 31
7.538542102900179
  0
LINE
  5
10A
330
1F
100
AcDbEntity
  8
FRAME
100
AcDbLine
 10
-7.891719721709648
 20
-7.135739834003394
 30
7.538542102900179
 11
-7.891719721709648
 21
-7.135739834003394
 31
7.726042102900179
  0
LINE
  5
10B
330
1F
100
AcDbEntity
  8
FRAME
100
AcDbLine
 10
-27.19052196231347
 20
2.876427225449447
 30
7.726042102900179
 11
-7.891719721709648
 21
-7.135739834003394
 31
7.726042102900179
  0
LINE
  5
10C
330
1F
100
AcDbEntity
  8
FRAME
100
AcDbLine
 10
-7.891719721709648
 20
-7.135739834003394
 30
7.538542102900179
 11
-7.891719721709648
 21
-5.727532491315802
 31
7.538542102900179
  0
LINE
  5
10D
330
1F
100
AcDbEntity
  8
FRAME
100
AcDbLine
 10
-7.891719721709648
 20
-7.135739834003394
 30
7.726042102900179
 11
-7.891719721709648
 21
-5.727532491315802
 31
7.726042102900179
  0
CIRCLE
  5
10E
330
1F
100
AcDbEntity
  8
Layer 04
 60
     1
100
AcDbCircle
 10
-96.0396195724589
 20
3.320252675225163
 30
0.0000000000000009
 40
0.3125000000000142
  0
LINE
  5
10F
330
1F
100
AcDbEntity
  8
Layer 04
 60
     1
100
AcDbLine
 10
-95.72711957245889
 20
3.320252675225163
 30
0.0000000000000009
 11
-95.72711957245889
 21
3.320252675225163
 31
-0.3124999999999991
  0
CIRCLE
  5
110
330
1F
100
AcDbEntity
  8
Layer 04
 60
     1
100
AcDbCircle
 10
-96.0396195724589
 20
3.320252675225163
 30
-0.3124999999999991
 40
0.3125000000000142
  0
CIRCLE
  5
111
330
1F
100
AcDbEntity
  8
Layer 04
 60
     1
100
AcDbCircle
 10
-76.88498252250213
 20
-8.304747324656972
 30
0.0
 40
0.3125
  0
LINE
  5
112
330
1F
100
AcDbEntity
  8
Layer 04
 60
     1
100
AcDbLine
 10
-76.57248252250213
 20
-8.304747324656976
 30
0.0
 11
-76.57248252250213
 21
-8.304747324656976
 31
-0.3125
  0
CIRCLE
  5
113
330
1F
100
AcDbEntity
  8
Layer 04
 60
     1
100
AcDbCircle
 10
-76.88498252250213
 20
-8.304747324656972
 30
-0.3125
 40
0.3125
  0
CIRCLE
  5
114
330
1F
100
AcDbEntity
  8
Layer 04
 60
     1
100
AcDbCircle
 10
-76.88498252250213
 20
-8.304747324656972
 30
0.0
 40
0.3125
  0
LINE
  5
115
330
1F
100
AcDbEntity
  8
Layer 04
 60
     1
100
AcDbLine
 10
-76.57248252250213
 20
-8.304747324656976
 30
0.0
 11
-76.57248252250213
 21
-8.304747324656976
 31
-0.3125
  0
CIRCLE
  5
116
330
1F
100
AcDbEntity
  8
Layer 04
 60
     1
100
AcDbCircle
 10
-76.88498252250213
 20
-8.304747324656972
 30
-0.3125
 40
0.3125
  0
CIRCLE
  5
117
330
1F
100
AcDbEntity
  8
Layer 04
 60
     1
100
AcDbCircle
 10
-76.88498252386141
 20
14.94525267441856
 30
0.0
 40
0.3124999999999858
  0
LINE
  5
118
330
1F
100
AcDbEntity
  8
Layer 04
 60
     1
100
AcDbLine
 10
-76.57248252386142
 20
14.94525267441857
 30
0.0
 11
-76.57248252386142
 21
14.94525267441857
 31
-0.3125
  0
CIRCLE
  5
119
330
1F
100
AcDbEntity
  8
Layer 04
 60
     1
100
AcDbCircle
 10
-76.88498252386141
 20
14.94525267441856
 30
-0.3125
 40
0.3124999999999858
  0
CIRCLE
  5
11A
330
1F
100
AcDbEntity
  8
Layer 04
 60
     1
100
AcDbCircle
 10
-48.50036713924442
 20
14.94525267443542
 30
0.0
 40
0.3125
  0
LINE
  5
11B
330
1F
100
AcDbEntity
  8
Layer 04
 60
     1
100
AcDbLine
 10
-48.18786713924442
 20
14.94525267443542
 30
0.0
 11
-48.18786713924442
 21
14.94525267443542
 31
-0.3125
  0
CIRCLE
  5
11C
330
1F
100
AcDbEntity
  8
Layer 04
 60
     1
100
AcDbCircle
 10
-48.50036713924442
 20
14.94525267443542
 30
-0.3125
 40
0.3125
  0
CIRCLE
  5
11D
330
1F
100
AcDbEntity
  8
Layer 04
 60
     1
100
AcDbCircle
 10
-48.50036713788511
 20
-8.304747324640125
 30
0.0
 40
0.3124999999999929
  0
LINE
  5
11E
330
1F
100
AcDbEntity
  8
Layer 04
 60
     1
100
AcDbLine
 10
-48.18786713788512
 20
-8.304747324640122
 30
0.0
 11
-48.18786713788512
 21
-8.304747324640122
 31
-0.3125
  0
CIRCLE
  5
11F
330
1F
100
AcDbEntity
  8
Layer 04
 60
     1
100
AcDbCircle
 10
-48.50036713788511
 20
-8.304747324640125
 30
-0.3125
 40
0.3124999999999929
  0
CIRCLE
  5
120
330
1F
100
AcDbEntity
  8
Default
 60
     1
100
AcDbCircle
 10
-96.03961957245888
 20
3.320252675225163
 30
0.0000000000000009
 40
0.3125
  0
LINE
  5
121
330
1F
100
AcDbEntity
  8
Default
 60
     1
100
AcDbLine
 10
-96.03961957245889
 20
3.632752675225163
 30
-0.00000000000537
 11
-96.03961957251983
 21
3.632752675359882
 31
7.838542102918323
  0
CIRCLE
  5
122
330
1F
100
AcDbEntity
  8
Default
 60
     1
100
AcDbCircle
 10
-96.03961957251984
 20
3.320252675359896
 30
7.838542102923694
 40
0.3124999999999858
  0
CIRCLE
  5
123
330
1F
100
AcDbEntity
  8
Default
 60
     1
100
AcDbCircle
 10
-76.88498252250213
 20
-8.304747324656987
 30
0.0
 40
0.3125
  0
LINE
  5
124
330
1F
100
AcDbEntity
  8
Default
 60
     1
100
AcDbLine
 10
-76.57248252250213
 20
-8.304747324656976
 30
0.0
 11
-76.57248252250213
 21
-8.304747324656976
 31
14.3125
  0
CIRCLE
  5
125
330
1F
100
AcDbEntity
  8
Default
 60
     1
100
AcDbCircle
 10
-76.88498252250213
 20
-8.304747324656987
 30
14.3125
 40
0.3125
  0
CIRCLE
  5
126
330
1F
100
AcDbEntity
  8
Default
 60
     1
100
AcDbCircle
 10
-76.88498280542876
 20
14.94525269758347
 30
0.0
 40
0.3125
  0
LINE
  5
127
330
1F
100
AcDbEntity
  8
Default
 60
     1
100
AcDbLine
 10
-76.57248280542876
 20
14.94525269758347
 30
0.0
 11
-76.57248280542876
 21
14.94525269758347
 31
14.3125
  0
CIRCLE
  5
128
330
1F
100
AcDbEntity
  8
Default
 60
     1
100
AcDbCircle
 10
-76.88498280542876
 20
14.94525269758347
 30
14.3125
 40
0.3125
  0
CIRCLE
  5
129
330
1F
100
AcDbEntity
  8
Default
 60
     1
100
AcDbCircle
 10
-48.50036713924442
 20
14.94525267443542
 30
0.0
 40
0.3125
  0
LINE
  5
12A
330
1F
100
AcDbEntity
  8
Default
 60
     1
100
AcDbLine
 10
-48.18786713924442
 20
14.94525267443542
 30
0.0
 11
-48.18786713924442
 21
14.94525267443542
 31
14.3125
  0
CIRCLE
  5
12B
330
1F
100
AcDbEntity
  8
Default
 60
     1
100
AcDbCircle
 10
-48.50036713924442
 20
14.94525267443542
 30
14.3125
 40
0.3125
  0
CIRCLE
  5
12C
330
1F
100
AcDbEntity
  8
Default
 60
     1
100
AcDbCircle
 10
-48.50036713788511
 20
-8.304747324640118
 30
0.0
 40
0.3124999999999929
  0
LINE
  5
12D
330
1F
100
AcDbEntity
  8
Default
 60
     1
100
AcDbLine
 10
-48.18786713788512
 20
-8.304747324640122
 30
0.0
 11
-48.18786713788512
 21
-8.304747324640122
 31
7.731085854420392
  0
CIRCLE
  5
12E
330
1F
100
AcDbEntity
  8
Default
 60
     1
100
AcDbCircle
 10
-48.50036713788511
 20
-8.304747324640118
 30
7.731085854420392
 40
0.3124999999999929
  0
CIRCLE
  5
12F
330
1F
100
AcDbEntity
  8
Layer 04
 60
     1
100
AcDbCircle
 10
-29.95435609550373
 20
12.125
 30
0.0
 40
0.3125
  0
CIRCLE
  5
130
330
1F
100
AcDbEntity
  8
FRAME
 60
     1
100
AcDbCircle
 10
48.50036713788634
 20
11.63073073305869
 30
12.0022217264472
 40
0.1875000000000016
210
7.796232795145478E-14
220
0.9536726432034295
230
-0.3008462890005199
  0
ARC
  5
131
330
1F
100
AcDbEntity
  8
FRAME
 60
     1
100
AcDbCircle
 10
48.50036713788667
 20
11.63073073306142
 30
-12.37721307010637
 40
0.1874999999999106
210
6.753865561290364E-15
220
0.9536726432034862
230
-0.3008462890003396
100
AcDbArc
 50
201.5044528239136
 51
270.000000000013
  0
SPLINE
  5
132
330
1F
100
AcDbEntity
  8
FRAME
 60
     1
100
AcDbSpline
210
0.0
220
0.0
230
1.0
 70
     8
 71
     3
 72
    25
 73
    21
 74
     0
 42
0.000000001
 43
0.0000000001
 40
0.0
 40
0.0
 40
0.0
 40
0.0
 40
0.2291004137557692
 40
0.2291004137557692
 40
0.2291004137557692
 40
0.6002263048218328
 40
0.6002263048218328
 40
0.789375089644811
 40
0.789375089644811
 40
0.9311301617861224
 40
0.9311301617861224
 40
0.9311301617861224
 40
1.072885233927375
 40
1.072885233927375
 40
1.262034018750405
 40
1.262034018750405
 40
1.633159909816374
 40
1.633159909816374
 40
1.633159909816374
 40
1.862260323572229
 40
1.862260323572229
 40
1.862260323572229
 40
1.862260323572229
 10
-48.67481509076219
 20
-8.325425253555157
 30
14.74999999999999
 10
-48.68371901023153
 20
-8.250307916953918
 30
14.74999999999999
 10
-48.68786713788677
 20
-8.172587241504662
 30
14.74999999999999
 10
-48.68786713788677
 20
-8.09696128306604
 30
14.74999999999999
 10
-48.68786713788677
 20
-7.988695733314533
 30
14.74999999999999
 10
-48.67930487170929
 20
-7.872285726518218
 30
14.74999999999999
 10
-48.64895390514613
 20
-7.711468329169012
 30
14.74999999999999
 10
-48.63432226199927
 20
-7.652661562292966
 30
14.74999999999998
 10
-48.59872210474566
 20
-7.56253724426438
 30
14.74999999999998
 10
-48.55892267553111
 20
-7.473719425495037
 30
14.74999999999999
 10
-48.50036713788671
 20
-7.473719425495037
 30
14.74999999999999
 10
-48.44181160024232
 20
-7.473719425495037
 30
14.75
 10
-48.40201217102776
 20
-7.562537244264437
 30
14.74999999999998
 10
-48.36641201377415
 20
-7.652661562293051
 30
14.74999999999999
 10
-48.35178037062735
 20
-7.711468329168927
 30
14.74999999999999
 10
-48.32142940406425
 20
-7.872285726518161
 30
14.74999999999999
 10
-48.31286713788671
 20
-7.988695733314447
 30
14.75
 10
-48.31286713788677
 20
-8.096961283065983
 30
14.75
 10
-48.31286713788677
 20
-8.172587241504207
 30
14.75
 10
-48.31701526554207
 20
-8.250307916954458
 30
14.75
 10
-48.32591918501134
 20
-8.325425253555185
 30
14.75
  0
ARC
  5
133
330
1F
100
AcDbEntity
  8
FRAME
 60
     1
100
AcDbCircle
 10
48.5003671378853
 20
11.63073073305945
 30
-12.37721307011377
 40
0.187499999999985
210
1.667746100193953E-13
220
0.953672643203496
230
-0.3008462890003092
100
AcDbArc
 50
270.0000000000022
 51
338.495547176068
  0
LINE
  5
134
330
1F
100
AcDbEntity
  8
FRAME
 60
     1
100
AcDbLine
 10
-48.50036713788512
 20
14.8888440183959
 30
7.302272233819748
 11
-48.50036713788677
 21
-8.12583443097228
 31
14.5625
  0
LINE
  5
135
330
1F
100
AcDbEntity
  8
FRAME
 60
     1
100
AcDbLine
 10
-48.50036713788677
 20
-8.12583443097228
 30
14.5625
 11
-48.50036713788677
 21
-8.361156003844545
 31
14.63673472029414
  0
CIRCLE
  5
136
330
1F
100
AcDbEntity
  8
FRAME
 60
     1
100
AcDbCircle
 10
48.5003671378861
 20
11.63073073305895
 30
-0.1874956718306438
 40
0.1875000000000084
210
4.184307221698332E-14
220
0.9536726432034295
230
-0.3008462890005199
  0
LINE
  5
137
330
1F
100
AcDbEntity
  8
FRAME
 60
     1
100
AcDbLine
 10
-48.31286713788512
 20
14.94525269758348
 30
7.481085854420396
 11
-48.31286713788676
 21
-8.096961283066017
 31
14.75
  0
LINE
  5
138
330
1F
100
AcDbEntity
  8
FRAME
 60
     1
100
AcDbLine
 10
-48.50036713788512
 20
15.0016613767711
 30
7.659899475021037
 11
-48.50036713788671
 21
-7.473719425495061
 31
14.75
  0
LINE
  5
139
330
1F
100
AcDbEntity
  8
FRAME
 60
     1
100
AcDbLine
 10
-48.68786713788512
 20
14.94525269758351
 30
7.481085854420389
 11
-48.68786713788675
 21
-8.096961283066037
 31
14.75
  0
CIRCLE
  5
13A
330
1F
100
AcDbEntity
  8
FRAME
 60
     1
100
AcDbCircle
 10
14.94525263738745
 20
-3.833582531689084
 30
-48.92398087010705
 40
0.1874999999999985
210
0.9733829442530838
220
-7.620915256880895E-10
230
-0.2291847373565652
  0
LINE
  5
13B
330
1F
100
AcDbEntity
  8
FRAME
 60
     1
100
AcDbLine
 10
-48.54333927613948
 20
14.94525267535988
 30
7.298576552372938
 11
-76.92795494368312
 21
14.94525269758347
 31
13.9817845591913
  0
CIRCLE
  5
13C
330
1F
100
AcDbEntity
  8
FRAME
 60
     1
100
AcDbCircle
 10
14.94525263738493
 20
-3.833582531689693
 30
-78.08477091181538
 40
0.1875000000000001
210
0.9733829442530837
220
-7.621284344357562E-10
230
-0.2291847373565662
  0
LINE
  5
13D
330
1F
100
AcDbEntity
  8
FRAME
 60
     1
100
AcDbLine
 10
-76.88498252250054
 20
-8.304747324640122
 30
7.481085854420392
 11
-48.50036713788512
 21
-8.304747324640122
 31
7.481085854420392
  0
LINE
  5
13E
330
1F
100
AcDbEntity
  8
FRAME
 60
     1
100
AcDbLine
 10
-48.50036713788512
 20
-8.304747324640122
 30
7.481085854420392
 11
-48.50036713788512
 21
14.94525267535988
 31
7.481085854420392
  0
LINE
  5
13F
330
1F
100
AcDbEntity
  8
FRAME
 60
     1
100
AcDbLine
 10
-76.88498252250054
 20
-8.304747324640122
 30
7.481085854420392
 11
-76.88498252250054
 21
14.94525267535988
 31
7.481085854420392
  0
LINE
  5
140
330
1F
100
AcDbEntity
  8
FRAME
 60
     1
100
AcDbLine
 10
-76.88498252250054
 20
14.94525267535988
 30
7.481085854420392
 11
-48.50036713788512
 21
14.94525267535988
 31
7.481085854420392
  0
CIRCLE
  5
141
330
1F
100
AcDbEntity
  8
FRAME
 60
     1
100
AcDbCircle
 10
-8.304747324640122
 20
7.481085854420392
 30
-76.88498252250054
 40
0.25
210
1.0
220
0.0
230
0.0
  0
LINE
  5
142
330
1F
100
AcDbEntity
  8
FRAME
 60
     1
100
AcDbLine
 10
-76.88498252250054
 20
-8.054747324640122
 30
7.481085854420392
 11
-48.50036713788512
 21
-8.054747324640122
 31
7.481085854420392
  0
CIRCLE
  5
143
330
1F
100
AcDbEntity
  8
FRAME
 60
     1
100
AcDbCircle
 10
-8.304747324640122
 20
7.481085854420392
 30
-48.50036713788512
 40
0.25
210
1.0
220
0.0
230
0.0
  0
CIRCLE
  5
144
330
1F
100
AcDbEntity
  8
FRAME
 60
     1
100
AcDbCircle
 10
76.88498252250054
 20
7.481085854420392
 30
-8.304747324640122
 40
0.2500000000000009
210
0.0
220
1.0
230
0.0
  0
LINE
  5
145
330
1F
100
AcDbEntity
  8
FRAME
 60
     1
100
AcDbLine
 10
-76.88498252250054
 20
-8.304747324640122
 30
7.731085854420392
 11
-76.88498252250054
 21
14.94525267535988
 31
7.731085854420392
  0
CIRCLE
  5
146
330
1F
100
AcDbEntity
  8
FRAME
 60
     1
100
AcDbCircle
 10
76.88498252250054
 20
7.481085854420392
 30
14.94525267535988
 40
0.2500000000000009
210
0.0
220
1.0
230
0.0
  0
CIRCLE
  5
147
330
1F
100
AcDbEntity
  8
FRAME
 60
     1
100
AcDbCircle
 10
14.94525267535988
 20
7.481085854420392
 30
-76.88498252250054
 40
0.25
210
1.0
220
0.0
230
0.0
  0
LINE
  5
148
330
1F
100
AcDbEntity
  8
FRAME
 60
     1
100
AcDbLine
 10
-76.88498252250054
 20
15.19525267535988
 30
7.481085854420392
 11
-48.50036713788512
 21
15.19525267535988
 31
7.481085854420392
  0
CIRCLE
  5
149
330
1F
100
AcDbEntity
  8
FRAME
 60
     1
100
AcDbCircle
 10
14.94525267535988
 20
7.481085854420392
 30
-48.50036713788512
 40
0.25
210
1.0
220
0.0
230
0.0
  0
CIRCLE
  5
14A
330
1F
100
AcDbEntity
  8
FRAME
 60
     1
100
AcDbCircle
 10
48.50036713788512
 20
7.481085854420397
 30
-8.304747324640122
 40
0.2499999999999956
210
0.0
220
1.0
230
0.0
  0
LINE
  5
14B
330
1F
100
AcDbEntity
  8
FRAME
 60
     1
100
AcDbLine
 10
-48.50036713788512
 20
-8.304747324640122
 30
7.731085854420392
 11
-48.50036713788512
 21
14.94525267535988
 31
7.731085854420392
  0
CIRCLE
  5
14C
330
1F
100
AcDbEntity
  8
FRAME
 60
     1
100
AcDbCircle
 10
48.50036713788512
 20
7.481085854420397
 30
14.94525267535988
 40
0.2499999999999956
210
0.0
220
1.0
230
0.0
  0
LINE
  5
14D
330
1F
100
AcDbEntity
  8
FRAME
 60
     1
100
AcDbLine
 10
-48.50036713788512
 20
-8.304747324640122
 30
0.0
 11
-48.50036713788512
 21
-8.304747324640122
 31
7.731085854420392
  0
LINE
  5
14E
330
1F
100
AcDbEntity
  8
FRAME
 60
     1
100
AcDbLine
 10
-48.50036713924442
 20
14.94525267443542
 30
0.0
 11
-48.50036713924442
 21
14.94525267443542
 31
14.3125
  0
LINE
  5
14F
330
1F
100
AcDbEntity
  8
FRAME
 60
     1
100
AcDbLine
 10
-76.88498280542876
 20
14.94525269758347
 30
0.0
 11
-76.88498280542876
 21
14.94525269758347
 31
14.3125
  0
LINE
  5
150
330
1F
100
AcDbEntity
  8
FRAME
 60
     1
100
AcDbLine
 10
-76.88498252250213
 20
-8.304747324656976
 30
0.0
 11
-76.88498252250213
 21
-8.304747324656976
 31
14.3125
  0
LINE
  5
152
330
1F
100
AcDbEntity
  8
MARBLE
 60
     1
100
AcDbLine
 10
-77.38498252250048
 20
-9.17852339893668
 30
7.728037513525607
 11
-77.38498252250048
 21
15.81902874965646
 31
7.728037513525607
  0
LINE
  5
153
330
1F
100
AcDbEntity
  8
MARBLE
 60
     1
100
AcDbLine
 10
-77.38498252250048
 20
15.81902874965646
 30
7.728037513525607
 11
-77.38498252250048
 21
15.81902874965646
 31
8.478037513525607
  0
LINE
  5
154
330
1F
100
AcDbEntity
  8
MARBLE
 60
     1
100
AcDbLine
 10
-77.38498252250048
 20
-9.17852339893668
 30
8.478037513525607
 11
-77.38498252250048
 21
15.81902874965646
 31
8.478037513525607
  0
LINE
  5
155
330
1F
100
AcDbEntity
  8
MARBLE
 60
     1
100
AcDbLine
 10
-77.38498252250048
 20
-9.17852339893668
 30
7.728037513525607
 11
-77.38498252250048
 21
-9.17852339893668
 31
8.478037513525607
  0
LINE
  5
156
330
1F
100
AcDbEntity
  8
MARBLE
 60
     1
100
AcDbLine
 10
-77.38498252250048
 20
15.81902874965646
 30
7.728037513525607
 11
-85.14549065671781
 21
15.81902874965646
 31
7.728037513525607
  0
LINE
  5
157
330
1F
100
AcDbEntity
  8
MARBLE
 60
     1
100
AcDbLine
 10
-85.14549065671781
 20
15.81902874965646
 30
7.728037513525607
 11
-85.14549065671781
 21
15.81902874965646
 31
8.478037513525607
  0
LINE
  5
158
330
1F
100
AcDbEntity
  8
MARBLE
 60
     1
100
AcDbLine
 10
-77.38498252250048
 20
15.81902874965646
 30
8.478037513525607
 11
-85.14549065671781
 21
15.81902874965646
 31
8.478037513525607
  0
ARC
  5
159
330
1F
100
AcDbEntity
  8
MARBLE
 60
     1
100
AcDbCircle
 10
-85.14549065671783
 20
3.320252675359894
 30
7.728037513525607
 40
12.49877607429657
100
AcDbArc
 50
89.99999999999994
 51
270.0000000000001
  0
LINE
  5
15A
330
1F
100
AcDbEntity
  8
MARBLE
 60
     1
100
AcDbLine
 10
-85.14549065671781
 20
-9.17852339893668
 30
7.728037513525607
 11
-85.14549065671781
 21
-9.17852339893668
 31
8.478037513525607
  0
ARC
  5
15B
330
1F
100
AcDbEntity
  8
MARBLE
 60
     1
100
AcDbCircle
 10
-85.14549065671783
 20
3.320252675359894
 30
8.478037513525607
 40
12.49877607429657
100
AcDbArc
 50
89.99999999999994
 51
270.0000000000001
  0
LINE
  5
15C
330
1F
100
AcDbEntity
  8
MARBLE
 60
     1
100
AcDbLine
 10
-85.14549065671781
 20
-9.17852339893668
 30
7.728037513525607
 11
-77.38498252250048
 21
-9.17852339893668
 31
7.728037513525607
  0
LINE
  5
15D
330
1F
100
AcDbEntity
  8
MARBLE
 60
     1
100
AcDbLine
 10
-85.14549065671781
 20
-9.17852339893668
 30
8.478037513525607
 11
-77.38498252250048
 21
-9.17852339893668
 31
8.478037513525607
  0
LINE
  5
15E
330
1F
100
AcDbEntity
  8
FRAME
 60
     1
100
AcDbLine
 10
-60.86544422639616
 20
-7.984461806870119
 30
7.712078056973841
 11
-62.62536713788512
 21
-7.983013035004408
 31
7.712078056973841
  0
LINE
  5
15F
330
1F
100
AcDbEntity
  8
FRAME
 60
     1
100
AcDbLine
 10
-62.62536713788512
 20
-7.983013035004408
 30
7.712078056973841
 11
-62.62536713788512
 21
-7.983013035004408
 31
7.524578056973841
  0
LINE
  5
160
330
1F
100
AcDbEntity
  8
FRAME
 60
     1
100
AcDbLine
 10
-60.86544422639616
 20
-7.984461806870119
 30
7.524578056973841
 11
-62.62536713788512
 21
-7.983013035004408
 31
7.524578056973841
  0
LINE
  5
161
330
1F
100
AcDbEntity
  8
FRAME
 60
     1
100
AcDbLine
 10
-60.86544422639616
 20
-7.984461806870119
 30
7.712078056973841
 11
-60.86544422639616
 21
-7.984461806870119
 31
7.524578056973841
  0
LINE
  5
162
330
1F
100
AcDbEntity
  8
FRAME
 60
     1
100
AcDbLine
 10
-62.62536713788512
 20
-7.983013035004408
 30
7.712078056973841
 11
-48.86334361862247
 21
5.879661112455491
 31
7.712078056973841
  0
LINE
  5
163
330
1F
100
AcDbEntity
  8
FRAME
 60
     1
100
AcDbLine
 10
-48.86334361862247
 20
5.879661112455491
 30
7.712078056973841
 11
-48.86334361862247
 21
5.879661112455491
 31
7.524578056973841
  0
LINE
  5
164
330
1F
100
AcDbEntity
  8
FRAME
 60
     1
100
AcDbLine
 10
-62.62536713788512
 20
-7.983013035004408
 30
7.524578056973841
 11
-48.86334361862247
 21
5.879661112455491
 31
7.524578056973841
  0
LINE
  5
165
330
1F
100
AcDbEntity
  8
FRAME
 60
     1
100
AcDbLine
 10
-48.86334361862247
 20
5.879661112455491
 30
7.712078056973841
 11
-48.86334361862247
 21
4.10541796827442
 31
7.712078056973841
  0
LINE
  5
166
330
1F
100
AcDbEntity
  8
FRAME
 60
     1
100
AcDbLine
 10
-48.86334361862247
 20
4.10541796827442
 30
7.712078056973841
 11
-48.86334361862247
 21
4.10541796827442
 31
7.524578056973841
  0
LINE
  5
167
330
1F
100
AcDbEntity
  8
FRAME
 60
     1
100
AcDbLine
 10
-48.86334361862247
 20
5.879661112455491
 30
7.524578056973841
 11
-48.86334361862247
 21
4.10541796827442
 31
7.524578056973841
  0
LINE
  5
168
330
1F
100
AcDbEntity
  8
FRAME
 60
     1
100
AcDbLine
 10
-48.86334361862247
 20
4.10541796827442
 30
7.712078056973841
 11
-60.86544422639616
 21
-7.984461806870119
 31
7.712078056973841
  0
LINE
  5
169
330
1F
100
AcDbEntity
  8
FRAME
 60
     1
100
AcDbLine
 10
-48.86334361862247
 20
4.10541796827442
 30
7.524578056973841
 11
-60.86544422639616
 21
-7.984461806870119
 31
7.524578056973841
  0
LINE
  5
16A
330
1F
100
AcDbEntity
  8
FRAME
 60
     1
100
AcDbLine
 10
-85.37536713788512
 20
-8.929747324640122
 30
14.5
 11
-47.87536713788512
 21
-8.929747324640122
 31
14.5
  0
LINE
  5
16B
330
1F
100
AcDbEntity
  8
FRAME
 60
     1
100
AcDbLine
 10
-84.12536713788512
 20
-7.679747324640122
 30
14.5
 11
-84.12536713788512
 21
14.32025267535987
 31
14.5
  0
LINE
  5
16C
330
1F
100
AcDbEntity
  8
FRAME
 60
     1
100
AcDbLine
 10
-85.37536713788512
 20
15.57025267535988
 30
14.5
 11
-85.37536713788512
 21
-8.929747324640122
 31
14.5
  0
LINE
  5
16D
330
1F
100
AcDbEntity
  8
FRAME
 60
     1
100
AcDbLine
 10
-47.87536713788512
 20
15.57025267535988
 30
14.5
 11
-85.37536713788512
 21
15.57025267535988
 31
14.5
  0
LINE
  5
16E
330
1F
100
AcDbEntity
  8
FRAME
 60
     1
100
AcDbLine
 10
-47.87536713788512
 20
-8.929747324640122
 30
14.5
 11
-47.87536713788512
 21
15.57025267535988
 31
14.5
  0
LINE
  5
16F
330
1F
100
AcDbEntity
  8
FRAME
 60
     1
100
AcDbLine
 10
-49.12536713788512
 20
-7.679747324640122
 30
14.5
 11
-84.12536713788512
 21
-7.679747324640122
 31
14.5
  0
LINE
  5
170
330
1F
100
AcDbEntity
  8
FRAME
 60
     1
100
AcDbLine
 10
-49.12536713788512
 20
14.32025267535987
 30
14.5
 11
-49.12536713788512
 21
-7.679747324640122
 31
14.5
  0
LINE
  5
171
330
1F
100
AcDbEntity
  8
FRAME
 60
     1
100
AcDbLine
 10
-84.12536713788512
 20
14.32025267535987
 30
14.5
 11
-49.12536713788512
 21
14.32025267535987
 31
14.5
  0
LINE
  5
172
330
1F
100
AcDbEntity
  8
FRAME
 60
     1
100
AcDbLine
 10
-85.37536713788512
 20
-8.929747324640122
 30
14.5
 11
-85.37536713788512
 21
-8.929747324640122
 31
14.3125
  0
LINE
  5
173
330
1F
100
AcDbEntity
  8
FRAME
 60
     1
100
AcDbLine
 10
-85.37536713788512
 20
-8.929747324640122
 30
14.3125
 11
-47.87536713788512
 21
-8.929747324640122
 31
14.3125
  0
LINE
  5
174
330
1F
100
AcDbEntity
  8
FRAME
 60
     1
100
AcDbLine
 10
-47.87536713788512
 20
-8.929747324640122
 30
14.3125
 11
-47.87536713788512
 21
-8.929747324640122
 31
14.5
  0
LINE
  5
175
330
1F
100
AcDbEntity
  8
FRAME
 60
     1
100
AcDbLine
 10
-47.87536713788512
 20
-8.929747324640122
 30
14.3125
 11
-47.87536713788512
 21
15.57025267535988
 31
14.3125
  0
LINE
  5
176
330
1F
100
AcDbEntity
  8
FRAME
 60
     1
100
AcDbLine
 10
-47.87536713788512
 20
15.57025267535988
 30
14.3125
 11
-47.87536713788512
 21
15.57025267535988
 31
14.5
  0
LINE
  5
177
330
1F
100
AcDbEntity
  8
FRAME
 60
     1
100
AcDbLine
 10
-47.87536713788512
 20
15.57025267535988
 30
14.3125
 11
-85.37536713788512
 21
15.57025267535988
 31
14.3125
  0
LINE
  5
178
330
1F
100
AcDbEntity
  8
FRAME
 60
     1
100
AcDbLine
 10
-85.37536713788512
 20
15.57025267535988
 30
14.3125
 11
-85.37536713788512
 21
15.57025267535988
 31
14.5
  0
LINE
  5
179
330
1F
100
AcDbEntity
  8
FRAME
 60
     1
100
AcDbLine
 10
-85.37536713788512
 20
15.57025267535988
 30
14.3125
 11
-85.37536713788512
 21
-8.929747324640122
 31
14.3125
  0
LINE
  5
17A
330
1F
100
AcDbEntity
  8
FRAME
 60
     1
100
AcDbLine
 10
-84.12536713788512
 20
-7.679747324640122
 30
14.5
 11
-84.12536713788512
 21
-7.679747324640122
 31
14.3125
  0
LINE
  5
17B
330
1F
100
AcDbEntity
  8
FRAME
 60
     1
100
AcDbLine
 10
-84.12536713788512
 20
-7.679747324640122
 30
14.3125
 11
-84.12536713788512
 21
14.32025267535987
 31
14.3125
  0
LINE
  5
17C
330
1F
100
AcDbEntity
  8
FRAME
 60
     1
100
AcDbLine
 10
-84.12536713788512
 20
14.32025267535987
 30
14.3125
 11
-84.12536713788512
 21
14.32025267535987
 31
14.5
  0
LINE
  5
17D
330
1F
100
AcDbEntity
  8
FRAME
 60
     1
100
AcDbLine
 10
-84.12536713788512
 20
14.32025267535987
 30
14.3125
 11
-49.12536713788512
 21
14.32025267535987
 31
14.3125
  0
LINE
  5
17E
330
1F
100
AcDbEntity
  8
FRAME
 60
     1
100
AcDbLine
 10
-49.12536713788512
 20
14.32025267535987
 30
14.3125
 11
-49.12536713788512
 21
14.32025267535987
 31
14.5
  0
LINE
  5
17F
330
1F
100
AcDbEntity
  8
FRAME
 60
     1
100
AcDbLine
 10
-49.12536713788512
 20
14.32025267535987
 30
14.3125
 11
-49.12536713788512
 21
-7.679747324640122
 31
14.3125
  0
LINE
  5
180
330
1F
100
AcDbEntity
  8
FRAME
 60
     1
100
AcDbLine
 10
-49.12536713788512
 20
-7.679747324640122
 30
14.3125
 11
-49.12536713788512
 21
-7.679747324640122
 31
14.5
  0
LINE
  5
181
330
1F
100
AcDbEntity
  8
FRAME
 60
     1
100
AcDbLine
 10
-49.12536713788512
 20
-7.679747324640122
 30
14.3125
 11
-84.12536713788512
 21
-7.679747324640122
 31
14.3125
  0
LINE
  5
182
330
1F
100
AcDbEntity
  8
FRAME
 60
     1
100
AcDbLine
 10
-85.37536713788512
 20
3.320252675359878
 30
14.5
 11
-84.12536713788512
 21
3.320252675359878
 31
14.5
  0
LINE
  5
183
330
1F
100
AcDbEntity
  8
FRAME
 60
     1
100
AcDbLine
 10
-49.1253671378851
 20
3.320252675359878
 30
14.5
 11
-47.8753671378851
 21
3.320252675359878
 31
14.5
  0
LINE
  5
184
330
1F
100
AcDbEntity
  8
FRAME
 60
     1
100
AcDbLine
 10
-66.6253671378851
 20
-8.929747324640122
 30
14.5
 11
-66.6253671378851
 21
-7.679747324640123
 31
14.5
  0
LINE
  5
185
330
1F
100
AcDbEntity
  8
FRAME
 60
     1
100
AcDbLine
 10
-66.6253671378851
 20
14.32025267535988
 30
14.5
 11
-66.6253671378851
 21
15.57025267535988
 31
14.5
  0
LINE
  5
186
330
1F
100
AcDbEntity
  8
FRAME
 60
     1
100
AcDbLine
 10
-47.87536713788512
 20
-8.929747324640118
 30
14.40625
 11
-85.37536713788512
 21
-8.929747324640118
 31
14.40625
  0
LINE
  5
187
330
1F
100
AcDbEntity
  8
FRAME
 60
     1
100
AcDbLine
 10
-66.62536713788512
 20
-8.929747324640118
 30
14.5
 11
-66.62536713788512
 21
-8.929747324640118
 31
14.3125
  0
LINE
  5
188
330
1F
100
AcDbEntity
  8
FRAME
 60
     1
100
AcDbLine
 10
-47.87536713788512
 20
15.57025267535988
 30
14.40625
 11
-47.87536713788512
 21
-8.929747324640122
 31
14.40625
  0
LINE
  5
189
330
1F
100
AcDbEntity
  8
FRAME
 60
     1
100
AcDbLine
 10
-47.87536713788512
 20
3.32025267535988
 30
14.5
 11
-47.87536713788512
 21
3.32025267535988
 31
14.3125
  0
LINE
  5
18A
330
1F
100
AcDbEntity
  8
FRAME
 60
     1
100
AcDbLine
 10
-85.37536713788512
 20
15.57025267535988
 30
14.40625
 11
-47.87536713788512
 21
15.57025267535988
 31
14.40625
  0
LINE
  5
18B
330
1F
100
AcDbEntity
  8
FRAME
 60
     1
100
AcDbLine
 10
-66.62536713788512
 20
15.57025267535988
 30
14.5
 11
-66.62536713788512
 21
15.57025267535988
 31
14.3125
  0
LINE
  5
18C
330
1F
100
AcDbEntity
  8
FRAME
 60
     1
100
AcDbLine
 10
-85.37536713788512
 20
-8.929747324640118
 30
14.40625
 11
-85.37536713788512
 21
15.57025267535989
 31
14.40625
  0
LINE
  5
18D
330
1F
100
AcDbEntity
  8
FRAME
 60
     1
100
AcDbLine
 10
-85.37536713788512
 20
3.320252675359884
 30
14.5
 11
-85.37536713788512
 21
3.320252675359884
 31
14.3125
  0
LINE
  5
18E
330
1F
100
AcDbEntity
  8
FRAME
 60
     1
100
AcDbLine
 10
-84.12536713788512
 20
14.32025267535994
 30
14.40625
 11
-84.12536713788512
 21
-7.679747324640051
 31
14.40625
  0
LINE
  5
18F
330
1F
100
AcDbEntity
  8
FRAME
 60
     1
100
AcDbLine
 10
-84.12536713788512
 20
3.320252675359944
 30
14.5
 11
-84.12536713788512
 21
3.320252675359944
 31
14.3125
  0
LINE
  5
190
330
1F
100
AcDbEntity
  8
FRAME
 60
     1
100
AcDbLine
 10
-49.12536713788512
 20
14.32025267535994
 30
14.40625
 11
-84.12536713788512
 21
14.32025267535994
 31
14.40625
  0
LINE
  5
191
330
1F
100
AcDbEntity
  8
FRAME
 60
     1
100
AcDbLine
 10
-66.62536713788512
 20
14.32025267535994
 30
14.5
 11
-66.62536713788512
 21
14.32025267535994
 31
14.3125
  0
LINE
  5
192
330
1F
100
AcDbEntity
  8
FRAME
 60
     1
100
AcDbLine
 10
-49.12536713788512
 20
-7.679747324640118
 30
14.40625
 11
-49.12536713788512
 21
14.32025267535987
 31
14.40625
  0
LINE
  5
193
330
1F
100
AcDbEntity
  8
FRAME
 60
     1
100
AcDbLine
 10
-49.12536713788512
 20
3.320252675359876
 30
14.5
 11
-49.12536713788512
 21
3.320252675359876
 31
14.3125
  0
LINE
  5
194
330
1F
100
AcDbEntity
  8
FRAME
 60
     1
100
AcDbLine
 10
-84.12536713788512
 20
-7.679747324640118
 30
14.40625
 11
-49.12536713788512
 21
-7.679747324640118
 31
14.40625
  0
LINE
  5
195
330
1F
100
AcDbEntity
  8
FRAME
 60
     1
100
AcDbLine
 10
-66.62536713788512
 20
-7.679747324640118
 30
14.5
 11
-66.62536713788512
 21
-7.679747324640118
 31
14.3125
  0
LINE
  5
196
330
1F
100
AcDbEntity
  8
FRAME
 60
     1
100
AcDbLine
 10
-85.37536713788512
 20
3.320252675359878
 30
14.3125
 11
-84.12536713788512
 21
3.320252675359878
 31
14.3125
  0
LINE
  5
197
330
1F
100
AcDbEntity
  8
FRAME
 60
     1
100
AcDbLine
 10
-49.1253671378851
 20
3.320252675359878
 30
14.3125
 11
-47.8753671378851
 21
3.320252675359878
 31
14.3125
  0
LINE
  5
198
330
1F
100
AcDbEntity
  8
FRAME
 60
     1
100
AcDbLine
 10
-66.6253671378851
 20
-8.929747324640122
 30
14.3125
 11
-66.6253671378851
 21
-7.679747324640123
 31
14.3125
  0
LINE
  5
199
330
1F
100
AcDbEntity
  8
FRAME
 60
     1
100
AcDbLine
 10
-66.6253671378851
 20
14.32025267535988
 30
14.3125
 11
-66.6253671378851
 21
15.57025267535988
 31
14.3125
  0
LINE
  5
19A
330
1F
100
AcDbEntity
  8
FRAME
 60
     1
100
AcDbLine
 10
-85.37536713788512
 20
-8.929747324640122
 30
14.5
 11
-47.87536713788512
 21
-8.929747324640122
 31
14.5
  0
LINE
  5
19B
330
1F
100
AcDbEntity
  8
FRAME
 60
     1
100
AcDbLine
 10
-84.12536713788512
 20
-7.679747324640122
 30
14.5
 11
-84.12536713788512
 21
14.32025267535987
 31
14.5
  0
LINE
  5
19C
330
1F
100
AcDbEntity
  8
FRAME
 60
     1
100
AcDbLine
 10
-85.37536713788512
 20
15.57025267535988
 30
14.5
 11
-85.37536713788512
 21
-8.929747324640122
 31
14.5
  0
LINE
  5
19D
330
1F
100
AcDbEntity
  8
FRAME
 60
     1
100
AcDbLine
 10
-47.87536713788512
 20
15.57025267535988
 30
14.5
 11
-85.37536713788512
 21
15.57025267535988
 31
14.5
  0
LINE
  5
19E
330
1F
100
AcDbEntity
  8
FRAME
 60
     1
100
AcDbLine
 10
-47.87536713788512
 20
-8.929747324640122
 30
14.5
 11
-47.87536713788512
 21
15.57025267535988
 31
14.5
  0
LINE
  5
19F
330
1F
100
AcDbEntity
  8
FRAME
 60
     1
100
AcDbLine
 10
-49.12536713788512
 20
-7.679747324640122
 30
14.5
 11
-84.12536713788512
 21
-7.679747324640122
 31
14.5
  0
LINE
  5
1A0
330
1F
100
AcDbEntity
  8
FRAME
 60
     1
100
AcDbLine
 10
-49.12536713788512
 20
14.32025267535987
 30
14.5
 11
-49.12536713788512
 21
-7.679747324640122
 31
14.5
  0
LINE
  5
1A1
330
1F
100
AcDbEntity
  8
FRAME
 60
     1
100
AcDbLine
 10
-84.12536713788512
 20
14.32025267535987
 30
14.5
 11
-49.12536713788512
 21
14.32025267535987
 31
14.5
  0
LINE
  5
1A2
330
1F
100
AcDbEntity
  8
FRAME
 60
     1
100
AcDbLine
 10
-85.37536713788512
 20
3.320252675359878
 30
14.5
 11
-84.12536713788512
 21
3.320252675359878
 31
14.5
  0
LINE
  5
1A3
330
1F
100
AcDbEntity
  8
FRAME
 60
     1
100
AcDbLine
 10
-49.1253671378851
 20
3.320252675359878
 30
14.5
 11
-47.8753671378851
 21
3.320252675359878
 31
14.5
  0
LINE
  5
1A4
330
1F
100
AcDbEntity
  8
FRAME
 60
     1
100
AcDbLine
 10
-66.6253671378851
 20
-8.929747324640122
 30
14.5
 11
-66.6253671378851
 21
-7.679747324640123
 31
14.5
  0
LINE
  5
1A5
330
1F
100
AcDbEntity
  8
FRAME
 60
     1
100
AcDbLine
 10
-66.6253671378851
 20
14.32025267535988
 30
14.5
 11
-66.6253671378851
 21
15.57025267535988
 31
14.5
  0
LINE
  5
1A7
330
1F
100
AcDbEntity
  8
Glass
 60
     1
100
AcDbLine
 10
-85.6442667310144
 20
-9.179747324640122
 30
14.87500000000005
 11
-85.6442667310144
 21
15.82025267535988
 31
14.875
  0
LINE
  5
1A8
330
1F
100
AcDbEntity
  8
Glass
 60
     1
100
AcDbLine
 10
-85.6442667310144
 20
15.82025267535988
 30
14.875
 11
-85.6442667310144
 21
15.82025267535988
 31
14.5
  0
LINE
  5
1A9
330
1F
100
AcDbEntity
  8
Glass
 60
     1
100
AcDbLine
 10
-85.6442667310144
 20
-9.179747324640122
 30
14.50000000000005
 11
-85.6442667310144
 21
15.82025267535988
 31
14.5
  0
LINE
  5
1AA
330
1F
100
AcDbEntity
  8
Glass
 60
     1
100
AcDbLine
 10
-85.6442667310144
 20
-9.179747324640122
 30
14.87500000000005
 11
-85.6442667310144
 21
-9.179747324640122
 31
14.50000000000005
  0
LINE
  5
1AB
330
1F
100
AcDbEntity
  8
Glass
 60
     1
100
AcDbLine
 10
-85.6442667310144
 20
15.82025267535988
 30
14.875
 11
-47.6442667310144
 21
15.82025267535988
 31
14.875
  0
LINE
  5
1AC
330
1F
100
AcDbEntity
  8
Glass
 60
     1
100
AcDbLine
 10
-47.6442667310144
 20
15.82025267535988
 30
14.875
 11
-47.6442667310144
 21
15.82025267535988
 31
14.5
  0
LINE
  5
1AD
330
1F
100
AcDbEntity
  8
Glass
 60
     1
100
AcDbLine
 10
-85.6442667310144
 20
15.82025267535988
 30
14.5
 11
-47.6442667310144
 21
15.82025267535988
 31
14.5
  0
LINE
  5
1AE
330
1F
100
AcDbEntity
  8
Glass
 60
     1
100
AcDbLine
 10
-47.6442667310144
 20
15.82025267535988
 30
14.875
 11
-47.6442667310144
 21
-9.179747324640122
 31
14.87500000000005
  0
LINE
  5
1AF
330
1F
100
AcDbEntity
  8
Glass
 60
     1
100
AcDbLine
 10
-47.6442667310144
 20
-9.179747324640122
 30
14.87500000000005
 11
-47.6442667310144
 21
-9.179747324640122
 31
14.50000000000005
  0
LINE
  5
1B0
330
1F
100
AcDbEntity
  8
Glass
 60
     1
100
AcDbLine
 10
-47.6442667310144
 20
15.82025267535988
 30
14.5
 11
-47.6442667310144
 21
-9.179747324640122
 31
14.50000000000005
  0
LINE
  5
1B1
330
1F
100
AcDbEntity
  8
Glass
 60
     1
100
AcDbLine
 10
-47.6442667310144
 20
-9.179747324640122
 30
14.87500000000005
 11
-85.6442667310144
 21
-9.179747324640122
 31
14.87500000000005
  0
LINE
  5
1B2
330
1F
100
AcDbEntity
  8
Glass
 60
     1
100
AcDbLine
 10
-47.6442667310144
 20
-9.179747324640122
 30
14.50000000000005
 11
-85.6442667310144
 21
-9.179747324640122
 31
14.50000000000005
  0
CIRCLE
  5
1B3
330
1F
100
AcDbEntity
  8
MARBLE
 60
     1
100
AcDbCircle
 10
-52.53895138639671
 20
-4.604765962199135
 30
7.728043479598835
 40
11.46385374875776
  0
LINE
  5
1B4
330
1F
100
AcDbEntity
  8
MARBLE
 60
     1
100
AcDbLine
 10
-44.62343840936421
 20
-12.89720812861413
 30
7.728043479598835
 11
-44.62343840936421
 21
-12.89720812861413
 31
8.478043479598835
  0
CIRCLE
  5
1B5
330
1F
100
AcDbEntity
  8
MARBLE
 60
     1
100
AcDbCircle
 10
-52.53895138639671
 20
-4.604765962199135
 30
8.478043479598835
 40
11.46385374875776
  0
LINE
  5
1B6
330
1F
100
AcDbEntity
  8
FRAME
 60
     1
100
AcDbLine
 10
-96.03961957245889
 20
3.320252675225163
 30
0.0000000000000009
 11
-96.03961957251983
 21
3.320252675359882
 31
7.838542102923694
  0
LINE
  5
1B7
330
1F
100
AcDbEntity
  8
FRAME
 60
     1
100
AcDbLine
 10
-76.97107581721338
 20
-5.727532491315802
 30
7.53854210290018
 11
-94.41099822464926
 21
3.320252675359878
 31
7.53854210290018
  0
LINE
  5
1B8
330
1F
100
AcDbEntity
  8
FRAME
 60
     1
100
AcDbLine
 10
-94.41099822464926
 20
3.320252675359878
 30
7.53854210290018
 11
-94.41099822464926
 21
3.320252675359878
 31
7.72604210290018
  0
LINE
  5
1B9
330
1F
100
AcDbEntity
  8
FRAME
 60
     1
100
AcDbLine
 10
-76.97107581721338
 20
-5.727532491315802
 30
7.72604210290018
 11
-94.41099822464926
 21
3.320252675359878
 31
7.72604210290018
  0
LINE
  5
1BA
330
1F
100
AcDbEntity
  8
FRAME
 60
     1
100
AcDbLine
 10
-76.97107581721338
 20
-5.727532491315802
 30
7.53854210290018
 11
-76.97107581721338
 21
-5.727532491315802
 31
7.72604210290018
  0
LINE
  5
1BB
330
1F
100
AcDbEntity
  8
FRAME
 60
     1
100
AcDbLine
 10
-94.41099822464926
 20
3.320252675359878
 30
7.53854210290018
 11
-76.97107581721338
 21
12.36803784203559
 31
7.53854210290018
  0
LINE
  5
1BC
330
1F
100
AcDbEntity
  8
FRAME
 60
     1
100
AcDbLine
 10
-76.97107581721338
 20
12.36803784203559
 30
7.53854210290018
 11
-76.97107581721338
 21
12.36803784203559
 31
7.72604210290018
  0
LINE
  5
1BD
330
1F
100
AcDbEntity
  8
FRAME
 60
     1
100
AcDbLine
 10
-94.41099822464926
 20
3.320252675359878
 30
7.72604210290018
 11
-76.97107581721338
 21
12.36803784203559
 31
7.72604210290018
  0
LINE
  5
1BE
330
1F
100
AcDbEntity
  8
FRAME
 60
     1
100
AcDbLine
 10
-76.97107581721338
 20
12.36803784203559
 30
7.53854210290018
 11
-76.97107581721338
 21
13.77624518472316
 31
7.53854210290018
  0
LINE
  5
1BF
330
1F
100
AcDbEntity
  8
FRAME
 60
     1
100
AcDbLine
 10
-76.97107581721338
 20
13.77624518472316
 30
7.53854210290018
 11
-76.97107581721338
 21
13.77624518472316
 31
7.72604210290018
  0
LINE
  5
1C0
330
1F
100
AcDbEntity
  8
FRAME
 60
     1
100
AcDbLine
 10
-76.97107581721338
 20
12.36803784203559
 30
7.72604210290018
 11
-76.97107581721338
 21
13.77624518472316
 31
7.72604210290018
  0
LINE
  5
1C1
330
1F
100
AcDbEntity
  8
FRAME
 60
     1
100
AcDbLine
 10
-76.97107581721338
 20
13.77624518472316
 30
7.53854210290018
 11
-96.2698756726187
 21
3.76407936270493
 31
7.53854210290018
  0
LINE
  5
1C2
330
1F
100
AcDbEntity
  8
FRAME
 60
     1
100
AcDbLine
 10
-96.2698756726187
 20
3.76407936270493
 30
7.53854210290018
 11
-96.2698756726187
 21
3.76407936270493
 31
7.72604210290018
  0
LINE
  5
1C3
330
1F
100
AcDbEntity
  8
FRAME
 60
     1
100
AcDbLine
 10
-76.97107581721338
 20
13.77624518472316
 30
7.72604210290018
 11
-96.2698756726187
 21
3.76407936270493
 31
7.72604210290018
  0
SPLINE
  5
1C4
330
1F
100
AcDbEntity
  8
FRAME
 60
     1
100
AcDbSpline
210
0.0
220
0.0
230
1.0
 70
    12
 71
     2
 72
     8
 73
     5
 74
     0
 42
0.000000001
 43
0.0000000001
 40
67.60137057187586
 40
67.60137057187586
 40
67.60137057187586
 40
68.38677078797537
 40
68.38677078797537
 40
68.69785456890953
 40
68.69785456890953
 40
68.69785456890953
 10
-96.2698756726187
 20
3.76407936270493
 30
7.53854210290018
 41
1.0
 10
-96.7137023599638
 20
3.53382326267646
 30
7.53854210290018
 41
0.7071067811865476
 10
-96.4834462599353
 20
3.089996575331408
 30
7.53854210290018
 41
1.0
 10
-96.4104945999284
 20
2.949379698761437
 30
7.53854210290018
 41
0.8839899352575135
 10
-96.2698780578172
 20
2.876427225449447
 30
7.538542102900178
 41
0.8598791311129838
  0
LINE
  5
1C5
330
1F
100
AcDbEntity
  8
FRAME
 60
     1
100
AcDbLine
 10
-96.2698780578172
 20
2.876427225449447
 30
7.538542102900179
 11
-96.2698780578172
 21
2.876427225449447
 31
7.726042102900179
  0
SPLINE
  5
1C6
330
1F
100
AcDbEntity
  8
FRAME
 60
     1
100
AcDbSpline
210
0.0
220
0.0
230
1.0
 70
    12
 71
     2
 72
     8
 73
     5
 74
     0
 42
0.000000001
 43
0.0000000001
 40
67.60137057187586
 40
67.60137057187586
 40
67.60137057187586
 40
68.38677078797537
 40
68.38677078797537
 40
68.69785456890953
 40
68.69785456890953
 40
68.69785456890953
 10
-96.2698756726187
 20
3.76407936270493
 30
7.72604210290018
 41
1.0
 10
-96.7137023599638
 20
3.53382326267646
 30
7.72604210290018
 41
0.7071067811865476
 10
-96.4834462599353
 20
3.089996575331408
 30
7.72604210290018
 41
1.0
 10
-96.4104945999284
 20
2.949379698761437
 30
7.726042102900179
 41
0.8839899352575135
 10
-96.2698780578172
 20
2.876427225449447
 30
7.726042102900179
 41
0.8598791311129838
  0
LINE
  5
1C7
330
1F
100
AcDbEntity
  8
FRAME
 60
     1
100
AcDbLine
 10
-96.2698780578172
 20
2.876427225449447
 30
7.538542102900179
 11
-76.97107581721338
 21
-7.135739834003394
 31
7.538542102900179
  0
LINE
  5
1C8
330
1F
100
AcDbEntity
  8
FRAME
 60
     1
100
AcDbLine
 10
-76.97107581721338
 20
-7.135739834003394
 30
7.538542102900179
 11
-76.97107581721338
 21
-7.135739834003394
 31
7.726042102900179
  0
LINE
  5
1C9
330
1F
100
AcDbEntity
  8
FRAME
 60
     1
100
AcDbLine
 10
-96.2698780578172
 20
2.876427225449447
 30
7.726042102900179
 11
-76.97107581721338
 21
-7.135739834003394
 31
7.726042102900179
  0
LINE
  5
1CA
330
1F
100
AcDbEntity
  8
FRAME
 60
     1
100
AcDbLine
 10
-76.97107581721338
 20
-7.135739834003394
 30
7.538542102900179
 11
-76.97107581721338
 21
-5.727532491315802
 31
7.538542102900179
  0
LINE
  5
1CB
330
1F
100
AcDbEntity
  8
FRAME
 60
     1
100
AcDbLine
 10
-76.97107581721338
 20
-7.135739834003394
 30
7.726042102900179
 11
-76.97107581721338
 21
-5.727532491315802
 31
7.726042102900179
  0
LINE
  5
1CC
330
1F
100
AcDbEntity
  8
Glass
100
AcDbLine
 10
-16.56491063551067
 20
-9.159747324640122
 30
14.52000000000005
 11
-16.56491063551067
 21
15.80025267535988
 31
14.52
  0
LINE
  5
1CD
330
1F
100
AcDbEntity
  8
Glass
100
AcDbLine
 10
-16.56491063551067
 20
-9.159747324640122
 30
14.85500000000005
 11
-16.56491063551067
 21
15.80025267535988
 31
14.855
  0
LINE
  5
1CE
330
1F
100
AcDbEntity
  8
Glass
100
AcDbLine
 10
-16.56491063551067
 20
15.80025267535988
 30
14.52
 11
-16.56491063551067
 21
15.80025267535988
 31
14.855
  0
LINE
  5
1CF
330
1F
100
AcDbEntity
  8
Glass
100
AcDbLine
 10
-16.56491063551067
 20
-9.159747324640122
 30
14.85500000000005
 11
-16.56491063551067
 21
-9.159747324640122
 31
14.52000000000005
  0
LINE
  5
1D0
330
1F
100
AcDbEntity
  8
Glass
100
AcDbLine
 10
-16.54491063551067
 20
15.82025267535988
 30
14.52
 11
21.41508936448933
 21
15.82025267535988
 31
14.52
  0
LINE
  5
1D1
330
1F
100
AcDbEntity
  8
Glass
100
AcDbLine
 10
-16.54491063551067
 20
15.82025267535988
 30
14.52
 11
-16.54491063551067
 21
15.82025267535988
 31
14.855
  0
LINE
  5
1D2
330
1F
100
AcDbEntity
  8
Glass
100
AcDbLine
 10
21.41508936448933
 20
15.82025267535988
 30
14.52
 11
21.41508936448933
 21
15.82025267535988
 31
14.855
  0
LINE
  5
1D3
330
1F
100
AcDbEntity
  8
Glass
100
AcDbLine
 10
-16.54491063551067
 20
15.82025267535988
 30
14.855
 11
21.41508936448933
 21
15.82025267535988
 31
14.855
  0
LINE
  5
1D4
330
1F
100
AcDbEntity
  8
Glass
100
AcDbLine
 10
21.43508936448933
 20
15.80025267535988
 30
14.855
 11
21.43508936448933
 21
-9.159747324640119
 31
14.85500000000005
  0
LINE
  5
1D5
330
1F
100
AcDbEntity
  8
Glass
100
AcDbLine
 10
21.43508936448933
 20
15.80025267535987
 30
14.52
 11
21.43508936448933
 21
15.80025267535988
 31
14.855
  0
LINE
  5
1D6
330
1F
100
AcDbEntity
  8
Glass
100
AcDbLine
 10
21.43508936448933
 20
15.80025267535987
 30
14.52
 11
21.43508936448933
 21
-9.159747324640124
 31
14.52000000000005
  0
LINE
  5
1D7
330
1F
100
AcDbEntity
  8
Glass
100
AcDbLine
 10
21.43508936448933
 20
-9.159747324640124
 30
14.52000000000005
 11
21.43508936448933
 21
-9.159747324640119
 31
14.85500000000005
  0
LINE
  5
1D8
330
1F
100
AcDbEntity
  8
Glass
100
AcDbLine
 10
21.41508936448932
 20
-9.179747324640122
 30
14.52000000000005
 11
-16.54491063551066
 21
-9.179747324640122
 31
14.52000000000005
  0
LINE
  5
1D9
330
1F
100
AcDbEntity
  8
Glass
100
AcDbLine
 10
21.41508936448932
 20
-9.179747324640122
 30
14.85500000000005
 11
-16.54491063551067
 21
-9.179747324640122
 31
14.85500000000005
  0
LINE
  5
1DA
330
1F
100
AcDbEntity
  8
Glass
100
AcDbLine
 10
21.41508936448932
 20
-9.179747324640122
 30
14.52000000000005
 11
21.41508936448932
 21
-9.179747324640122
 31
14.85500000000005
  0
LINE
  5
1DB
330
1F
100
AcDbEntity
  8
Glass
100
AcDbLine
 10
-16.54491063551067
 20
-9.179747324640122
 30
14.85500000000005
 11
-16.54491063551066
 21
-9.179747324640122
 31
14.52000000000005
  0
LINE
  5
1DC
330
1F
100
AcDbEntity
  8
Glass
100
AcDbLine
 10
21.41508936448933
 20
-9.15974732464012
 30
14.87500000000005
 11
-16.54491063551067
 21
-9.15974732464012
 31
14.87500000000005
  0
LINE
  5
1DD
330
1F
100
AcDbEntity
  8
Glass
100
AcDbLine
 10
-16.54491063551067
 20
15.80025267535988
 30
14.875
 11
21.41508936448933
 21
15.80025267535988
 31
14.875
  0
LINE
  5
1DE
330
1F
100
AcDbEntity
  8
Glass
100
AcDbLine
 10
-16.54491063551067
 20
-9.15974732464012
 30
14.87500000000005
 11
-16.54491063551067
 21
15.80025267535988
 31
14.875
  0
LINE
  5
1DF
330
1F
100
AcDbEntity
  8
Glass
100
AcDbLine
 10
21.41508936448933
 20
15.80025267535988
 30
14.875
 11
21.41508936448933
 21
-9.15974732464012
 31
14.87500000000005
  0
LINE
  5
1E0
330
1F
100
AcDbEntity
  8
Glass
100
AcDbLine
 10
-16.54491063551067
 20
15.80025267535988
 30
14.5
 11
21.41508936448933
 21
15.80025267535988
 31
14.5
  0
LINE
  5
1E1
330
1F
100
AcDbEntity
  8
Glass
100
AcDbLine
 10
21.41508936448933
 20
-9.159747324640122
 30
14.50000000000005
 11
-16.54491063551067
 21
-9.159747324640122
 31
14.50000000000005
  0
LINE
  5
1E2
330
1F
100
AcDbEntity
  8
Glass
100
AcDbLine
 10
-16.54491063551067
 20
-9.159747324640122
 30
14.50000000000005
 11
-16.54491063551067
 21
15.80025267535988
 31
14.5
  0
LINE
  5
1E3
330
1F
100
AcDbEntity
  8
Glass
100
AcDbLine
 10
21.41508936448933
 20
15.80025267535988
 30
14.5
 11
21.41508936448933
 21
-9.159747324640122
 31
14.50000000000005
  0
LINE
  5
1E4
330
1F
100
AcDbEntity
  8
Glass
100
AcDbLine
 10
-16.54491063551067
 20
-9.15974732464012
 30
14.87500000000005
 11
-16.56491063551067
 21
-9.159747324640122
 31
14.85500000000005
  0
LINE
  5
1E5
330
1F
100
AcDbEntity
  8
Glass
100
AcDbLine
 10
-16.56491063551067
 20
15.80025267535988
 30
14.855
 11
-16.54491063551067
 21
15.80025267535988
 31
14.875
  0
LINE
  5
1E6
330
1F
100
AcDbEntity
  8
Glass
100
AcDbLine
 10
-16.56491063551067
 20
-9.159747324640122
 30
14.52000000000005
 11
-16.54491063551066
 21
-9.179747324640122
 31
14.52000000000005
  0
LINE
  5
1E7
330
1F
100
AcDbEntity
  8
Glass
100
AcDbLine
 10
-16.54491063551067
 20
15.80025267535988
 30
14.875
 11
-16.54491063551067
 21
15.82025267535988
 31
14.855
  0
LINE
  5
1E8
330
1F
100
AcDbEntity
  8
Glass
100
AcDbLine
 10
21.41508936448933
 20
15.82025267535988
 30
14.855
 11
21.41508936448933
 21
15.80025267535988
 31
14.875
  0
LINE
  5
1E9
330
1F
100
AcDbEntity
  8
Glass
100
AcDbLine
 10
21.41508936448933
 20
15.82025267535988
 30
14.855
 11
21.43508936448933
 21
15.80025267535988
 31
14.855
  0
LINE
  5
1EA
330
1F
100
AcDbEntity
  8
Glass
100
AcDbLine
 10
21.43508936448933
 20
15.80025267535987
 30
14.52
 11
21.41508936448933
 21
15.82025267535988
 31
14.52
  0
LINE
  5
1EB
330
1F
100
AcDbEntity
  8
Glass
100
AcDbLine
 10
-16.54491063551067
 20
15.80025267535988
 30
14.5
 11
-16.54491063551067
 21
15.82025267535988
 31
14.52
  0
LINE
  5
1EC
330
1F
100
AcDbEntity
  8
Glass
100
AcDbLine
 10
21.41508936448933
 20
15.80025267535988
 30
14.875
 11
21.43508936448933
 21
15.80025267535988
 31
14.855
  0
LINE
  5
1ED
330
1F
100
AcDbEntity
  8
Glass
100
AcDbLine
 10
21.43508936448933
 20
-9.159747324640119
 30
14.85500000000005
 11
21.41508936448933
 21
-9.15974732464012
 31
14.87500000000005
  0
LINE
  5
1EE
330
1F
100
AcDbEntity
  8
Glass
100
AcDbLine
 10
21.43508936448933
 20
-9.159747324640119
 30
14.85500000000005
 11
21.41508936448932
 21
-9.179747324640122
 31
14.85500000000005
  0
LINE
  5
1EF
330
1F
100
AcDbEntity
  8
Glass
100
AcDbLine
 10
21.41508936448933
 20
15.80025267535988
 30
14.5
 11
21.43508936448933
 21
15.80025267535987
 31
14.52
  0
LINE
  5
1F0
330
1F
100
AcDbEntity
  8
Glass
100
AcDbLine
 10
21.43508936448933
 20
-9.159747324640124
 30
14.52000000000005
 11
21.41508936448933
 21
-9.159747324640122
 31
14.50000000000005
  0
LINE
  5
1F1
330
1F
100
AcDbEntity
  8
Glass
100
AcDbLine
 10
-16.54491063551067
 20
-9.179747324640122
 30
14.85500000000005
 11
-16.54491063551067
 21
-9.15974732464012
 31
14.87500000000005
  0
LINE
  5
1F2
330
1F
100
AcDbEntity
  8
Glass
100
AcDbLine
 10
21.41508936448933
 20
-9.159747324640122
 30
14.50000000000005
 11
21.41508936448932
 21
-9.179747324640122
 31
14.52000000000005
  0
LINE
  5
1F3
330
1F
100
AcDbEntity
  8
Glass
100
AcDbLine
 10
-16.56491063551067
 20
-9.159747324640122
 30
14.85500000000005
 11
-16.54491063551067
 21
-9.179747324640122
 31
14.85500000000005
  0
LINE
  5
1F4
330
1F
100
AcDbEntity
  8
Glass
100
AcDbLine
 10
-16.54491063551067
 20
15.82025267535988
 30
14.855
 11
-16.56491063551067
 21
15.80025267535988
 31
14.855
  0
LINE
  5
1F5
330
1F
100
AcDbEntity
  8
Glass
100
AcDbLine
 10
-16.54491063551067
 20
15.82025267535988
 30
14.52
 11
-16.56491063551067
 21
15.80025267535988
 31
14.52
  0
LINE
  5
1F6
330
1F
100
AcDbEntity
  8
Glass
100
AcDbLine
 10
-16.56491063551067
 20
15.80025267535988
 30
14.52
 11
-16.54491063551067
 21
15.80025267535988
 31
14.5
  0
LINE
  5
1F7
330
1F
100
AcDbEntity
  8
Glass
100
AcDbLine
 10
-16.54491063551067
 20
-9.159747324640122
 30
14.50000000000005
 11
-16.56491063551067
 21
-9.159747324640122
 31
14.52000000000005
  0
LINE
  5
1F8
330
1F
100
AcDbEntity
  8
Glass
100
AcDbLine
 10
-16.54491063551066
 20
-9.179747324640122
 30
14.52000000000005
 11
-16.54491063551067
 21
-9.159747324640122
 31
14.50000000000005
  0
LINE
  5
1F9
330
1F
100
AcDbEntity
  8
Glass
100
AcDbLine
 10
21.41508936448933
 20
15.82025267535988
 30
14.52
 11
21.41508936448933
 21
15.80025267535988
 31
14.5
  0
LINE
  5
1FA
330
1F
100
AcDbEntity
  8
Glass
100
AcDbLine
 10
21.41508936448933
 20
-9.15974732464012
 30
14.87500000000005
 11
21.41508936448932
 21
-9.179747324640122
 31
14.85500000000005
  0
LINE
  5
1FB
330
1F
100
AcDbEntity
  8
Glass
100
AcDbLine
 10
21.41508936448932
 20
-9.179747324640122
 30
14.52000000000005
 11
21.43508936448933
 21
-9.159747324640124
 31
14.52000000000005
  0
LINE
  5
1FC
330
1F
100
AcDbEntity
  8
Glass
100
AcDbLine
 10
-16.56491063551067
 20
-9.15974732464017
 30
14.68750000000005
 11
-16.56491063551067
 21
15.80025267535985
 31
14.6875
  0
LINE
  5
1FD
330
1F
100
AcDbEntity
  8
Glass
100
AcDbLine
 10
-16.56491063551067
 20
3.320252675359878
 30
14.85500000000003
 11
-16.56491063551067
 21
3.320252675359878
 31
14.52000000000002
  0
LINE
  5
1FE
330
1F
100
AcDbEntity
  8
Glass
100
AcDbLine
 10
-16.54491063551073
 20
15.82025267535988
 30
14.6875
 11
21.4150893644893
 21
15.82025267535988
 31
14.6875
  0
LINE
  5
1FF
330
1F
100
AcDbEntity
  8
Glass
100
AcDbLine
 10
2.435089364489329
 20
15.82025267535988
 30
14.855
 11
2.435089364489329
 21
15.82025267535988
 31
14.52
  0
LINE
  5
200
330
1F
100
AcDbEntity
  8
Glass
100
AcDbLine
 10
21.43508936448933
 20
15.80025267535987
 30
14.6875
 11
21.43508936448933
 21
-9.159747324640128
 31
14.68750000000005
  0
LINE
  5
201
330
1F
100
AcDbEntity
  8
Glass
100
AcDbLine
 10
21.43508936448933
 20
3.320252675359878
 30
14.85500000000003
 11
21.43508936448933
 21
3.320252675359878
 31
14.52000000000002
  0
LINE
  5
202
330
1F
100
AcDbEntity
  8
Glass
100
AcDbLine
 10
21.41508936448933
 20
-9.179747324640122
 30
14.68750000000005
 11
-16.54491063551067
 21
-9.179747324640122
 31
14.68750000000005
  0
LINE
  5
203
330
1F
100
AcDbEntity
  8
Glass
100
AcDbLine
 10
2.435089364489329
 20
-9.179747324640122
 30
14.85500000000005
 11
2.435089364489329
 21
-9.179747324640122
 31
14.52000000000005
  0
LINE
  5
204
330
1F
100
AcDbEntity
  8
Glass
100
AcDbLine
 10
21.41508936448933
 20
3.320252675359878
 30
14.87500000000002
 11
-16.54491063551067
 21
3.320252675359878
 31
14.87500000000002
  0
LINE
  5
205
330
1F
100
AcDbEntity
  8
Glass
100
AcDbLine
 10
2.435089364489329
 20
-9.15974732464012
 30
14.87500000000005
 11
2.435089364489329
 21
15.80025267535989
 31
14.875
  0
LINE
  5
206
330
1F
100
AcDbEntity
  8
Glass
100
AcDbLine
 10
21.41508936448935
 20
3.320252675359878
 30
14.50000000000002
 11
-16.54491063551067
 21
3.320252675359878
 31
14.50000000000002
  0
LINE
  5
207
330
1F
100
AcDbEntity
  8
Glass
100
AcDbLine
 10
2.435089364489329
 20
-9.15974732464012
 30
14.50000000000005
 11
2.435089364489329
 21
15.80025267535989
 31
14.5
  0
LINE
  5
208
330
1F
100
AcDbEntity
  8
Glass
100
AcDbLine
 10
-16.55491063551067
 20
-9.159747324640122
 30
14.86500000000005
 11
-16.55491063551067
 21
15.80025267535988
 31
14.865
  0
LINE
  5
209
330
1F
100
AcDbEntity
  8
Glass
100
AcDbLine
 10
-16.56491063551067
 20
3.320252675359947
 30
14.85500000000003
 11
-16.54491063551067
 21
3.320252675359947
 31
14.87500000000002
  0
LINE
  5
20A
330
1F
100
AcDbEntity
  8
Glass
100
AcDbLine
 10
-16.55491063551066
 20
15.81025267535987
 30
14.52
 11
-16.55491063551066
 21
15.81025267535987
 31
14.855
  0
LINE
  5
20B
330
1F
100
AcDbEntity
  8
Glass
100
AcDbLine
 10
-16.56491063551067
 20
15.80025267535988
 30
14.6875
 11
-16.54491063551066
 21
15.82025267535988
 31
14.6875
  0
LINE
  5
20C
330
1F
100
AcDbEntity
  8
Glass
100
AcDbLine
 10
-16.55491063551067
 20
-9.159747324640122
 30
14.51000000000005
 11
-16.55491063551067
 21
15.80025267535987
 31
14.51
  0
LINE
  5
20D
330
1F
100
AcDbEntity
  8
Glass
100
AcDbLine
 10
-16.56491063551067
 20
3.320252675359944
 30
14.52000000000002
 11
-16.54491063551067
 21
3.320252675359945
 31
14.50000000000002
  0
LINE
  5
20E
330
1F
100
AcDbEntity
  8
Glass
100
AcDbLine
 10
-16.55491063551067
 20
-9.169747324640122
 30
14.85500000000005
 11
-16.55491063551067
 21
-9.16974732464012
 31
14.52000000000005
  0
LINE
  5
20F
330
1F
100
AcDbEntity
  8
Glass
100
AcDbLine
 10
-16.56491063551067
 20
-9.159747324640122
 30
14.68750000000005
 11
-16.54491063551066
 21
-9.179747324640122
 31
14.68750000000005
  0
LINE
  5
210
330
1F
100
AcDbEntity
  8
Glass
100
AcDbLine
 10
-16.54491063551067
 20
15.81025267535988
 30
14.865
 11
21.41508936448934
 21
15.81025267535987
 31
14.865
  0
LINE
  5
211
330
1F
100
AcDbEntity
  8
Glass
100
AcDbLine
 10
2.437089364489095
 20
15.82025267535987
 30
14.855
 11
2.437089364489095
 21
15.80025267535988
 31
14.875
  0
LINE
  5
212
330
1F
100
AcDbEntity
  8
Glass
100
AcDbLine
 10
21.42508936448932
 20
15.81025267535987
 30
14.52
 11
21.42508936448932
 21
15.81025267535987
 31
14.855
  0
LINE
  5
213
330
1F
100
AcDbEntity
  8
Glass
100
AcDbLine
 10
21.41508936448933
 20
15.82025267535987
 30
14.6875
 11
21.43508936448933
 21
15.80025267535988
 31
14.6875
  0
LINE
  5
214
330
1F
100
AcDbEntity
  8
Glass
100
AcDbLine
 10
-16.54491063551067
 20
15.81025267535988
 30
14.51
 11
21.41508936448933
 21
15.81025267535988
 31
14.51
  0
LINE
  5
215
330
1F
100
AcDbEntity
  8
Glass
100
AcDbLine
 10
2.437089364489099
 20
15.82025267535988
 30
14.52
 11
2.437089364489097
 21
15.80025267535988
 31
14.5
  0
LINE
  5
216
330
1F
100
AcDbEntity
  8
Glass
100
AcDbLine
 10
21.42508936448933
 20
15.8002526753599
 30
14.865
 11
21.42508936448933
 21
-9.159747324640112
 31
14.86500000000005
  0
LINE
  5
217
330
1F
100
AcDbEntity
  8
Glass
100
AcDbLine
 10
21.43508936448933
 20
3.32025267535991
 30
14.85500000000002
 11
21.41508936448933
 21
3.320252675359912
 31
14.87500000000002
  0
LINE
  5
218
330
1F
100
AcDbEntity
  8
Glass
100
AcDbLine
 10
21.42508936448932
 20
-9.169747324640124
 30
14.52000000000005
 11
21.42508936448932
 21
-9.169747324640124
 31
14.85500000000005
  0
LINE
  5
219
330
1F
100
AcDbEntity
  8
Glass
100
AcDbLine
 10
21.43508936448933
 20
-9.159747324640126
 30
14.68750000000005
 11
21.41508936448933
 21
-9.179747324640122
 31
14.68750000000005
  0
LINE
  5
21A
330
1F
100
AcDbEntity
  8
Glass
100
AcDbLine
 10
21.42508936448933
 20
15.80025267535987
 30
14.51
 11
21.42508936448932
 21
-9.15974732464012
 31
14.51000000000005
  0
LINE
  5
21B
330
1F
100
AcDbEntity
  8
Glass
100
AcDbLine
 10
21.43508936448933
 20
3.320252675359915
 30
14.52000000000002
 11
21.41508936448933
 21
3.320252675359913
 31
14.50000000000002
  0
LINE
  5
21C
330
1F
100
AcDbEntity
  8
Glass
100
AcDbLine
 10
21.41508936448931
 20
-9.16974732464012
 30
14.86500000000005
 11
-16.54491063551067
 21
-9.169747324640122
 31
14.86500000000005
  0
LINE
  5
21D
330
1F
100
AcDbEntity
  8
Glass
100
AcDbLine
 10
2.435089364489214
 20
-9.179747324640122
 30
14.85500000000005
 11
2.435089364489215
 21
-9.159747324640122
 31
14.87500000000005
  0
LINE
  5
21E
330
1F
100
AcDbEntity
  8
Glass
100
AcDbLine
 10
21.41508936448932
 20
-9.16974732464012
 30
14.51000000000005
 11
-16.54491063551066
 21
-9.169747324640122
 31
14.51000000000005
  0
LINE
  5
21F
330
1F
100
AcDbEntity
  8
Glass
100
AcDbLine
 10
2.435089364489217
 20
-9.179747324640122
 30
14.52000000000005
 11
2.435089364489215
 21
-9.159747324640122
 31
14.50000000000005
  0
LINE
  5
220
330
1F
100
AcDbEntity
  8
Glass
100
AcDbLine
 10
-16.54491063551067
 20
-9.169747324640124
 30
14.86500000000005
 11
-16.55491063551067
 21
-9.169747324640124
 31
14.85500000000005
  0
LINE
  5
221
330
1F
100
AcDbEntity
  8
Glass
100
AcDbLine
 10
-16.55491063551067
 20
-9.159747324640124
 30
14.86500000000005
 11
-16.54491063551067
 21
-9.179747324640122
 31
14.85500000000005
  0
LINE
  5
222
330
1F
100
AcDbEntity
  8
Glass
100
AcDbLine
 10
-16.55491063551067
 20
15.81025267535988
 30
14.855
 11
-16.54491063551067
 21
15.81025267535988
 31
14.865
  0
LINE
  5
223
330
1F
100
AcDbEntity
  8
Glass
100
AcDbLine
 10
-16.55491063551067
 20
15.80025267535988
 30
14.865
 11
-16.54491063551067
 21
15.82025267535988
 31
14.855
  0
LINE
  5
224
330
1F
100
AcDbEntity
  8
Glass
100
AcDbLine
 10
-16.54491063551067
 20
15.81025267535988
 30
14.51
 11
-16.55491063551067
 21
15.80025267535988
 31
14.51
  0
LINE
  5
225
330
1F
100
AcDbEntity
  8
Glass
100
AcDbLine
 10
-16.55491063551067
 20
15.81025267535987
 30
14.52
 11
-16.54491063551067
 21
15.80025267535988
 31
14.5
  0
LINE
  5
226
330
1F
100
AcDbEntity
  8
Glass
100
AcDbLine
 10
-16.54491063551066
 20
-9.16974732464012
 30
14.51000000000005
 11
-16.55491063551067
 21
-9.16974732464012
 31
14.52000000000005
  0
LINE
  5
227
330
1F
100
AcDbEntity
  8
Glass
100
AcDbLine
 10
-16.55491063551067
 20
-9.15974732464012
 30
14.51000000000005
 11
-16.54491063551066
 21
-9.179747324640122
 31
14.52000000000005
  0
LINE
  5
228
330
1F
100
AcDbEntity
  8
Glass
100
AcDbLine
 10
21.42508936448933
 20
15.81025267535988
 30
14.855
 11
21.42508936448933
 21
15.80025267535988
 31
14.865
  0
LINE
  5
229
330
1F
100
AcDbEntity
  8
Glass
100
AcDbLine
 10
21.41508936448933
 20
15.81025267535988
 30
14.865
 11
21.43508936448933
 21
15.80025267535988
 31
14.855
  0
LINE
  5
22A
330
1F
100
AcDbEntity
  8
Glass
100
AcDbLine
 10
21.42508936448933
 20
15.80025267535988
 30
14.51
 11
21.41508936448933
 21
15.81025267535987
 31
14.51
  0
LINE
  5
22B
330
1F
100
AcDbEntity
  8
Glass
100
AcDbLine
 10
21.42508936448933
 20
15.81025267535988
 30
14.52
 11
21.41508936448933
 21
15.80025267535987
 31
14.5
  0
LINE
  5
22C
330
1F
100
AcDbEntity
  8
Glass
100
AcDbLine
 10
21.42508936448932
 20
-9.16974732464012
 30
14.85500000000005
 11
21.41508936448932
 21
-9.16974732464012
 31
14.86500000000005
  0
LINE
  5
22D
330
1F
100
AcDbEntity
  8
Glass
100
AcDbLine
 10
21.42508936448932
 20
-9.159747324640119
 30
14.86500000000005
 11
21.41508936448932
 21
-9.179747324640122
 31
14.85500000000005
  0
LINE
  5
22E
330
1F
100
AcDbEntity
  8
Glass
100
AcDbLine
 10
21.41508936448932
 20
-9.16974732464012
 30
14.51000000000005
 11
21.42508936448932
 21
-9.159747324640122
 31
14.51000000000005
  0
LINE
  5
22F
330
1F
100
AcDbEntity
  8
Glass
100
AcDbLine
 10
21.42508936448932
 20
-9.169747324640122
 30
14.52000000000005
 11
21.41508936448932
 21
-9.159747324640119
 31
14.50000000000005
  0
CIRCLE
  5
230
330
1F
100
AcDbEntity
  8
MARBLE
100
AcDbCircle
 10
16.54040470910702
 20
-4.604765962199134
 30
7.748043479598834
 40
11.46385374875776
  0
CIRCLE
  5
231
330
1F
100
AcDbEntity
  8
MARBLE
100
AcDbCircle
 10
16.54040470910702
 20
-4.604765962199134
 30
8.458043479598834
 40
11.46385374875776
  0
LINE
  5
232
330
1F
100
AcDbEntity
  8
MARBLE
100
AcDbLine
 10
24.45591768613951
 20
-12.89720812861413
 30
7.748043479598834
 11
24.45591768613951
 21
-12.89720812861413
 31
8.458043479598832
  0
LINE
  5
233
330
1F
100
AcDbEntity
  8
MARBLE
100
AcDbLine
 10
24.45591768613951
 20
-12.89720812861413
 30
7.748043479598834
 11
24.44210817120587
 21
-12.88274101773126
 31
7.728043479598836
  0
SPLINE
  5
234
330
1F
100
AcDbEntity
  8
MARBLE
100
AcDbSpline
210
0.0
220
0.0
230
1.0
 70
    11
 71
     3
 72
    39
 73
    35
 74
     0
 42
0.000000001
 43
0.0000000001
 40
0.0
 40
0.0
 40
0.0
 40
0.0
 40
4.313838884494514
 40
6.650881914677046
 40
8.987924944859579
 40
11.32496797660365
 40
13.66201100834771
 40
15.81893045059497
 40
17.97584989284222
 40
20.13276933508948
 40
22.28968877733675
 40
24.62673180751929
 40
26.96377483770184
 40
29.3008178694459
 40
31.63786090118997
 40
33.79478034343805
 40
35.95169978568612
 40
38.10861922793339
 40
40.26553867018065
 40
42.60258170192471
 40
44.93962473366877
 40
47.27666776385131
 40
49.61371079403384
 40
51.77063023628109
 40
53.92754967852834
 40
56.08446912077559
 40
58.24138856302284
 40
60.5784315947669
 40
62.91547462651096
 40
64.08399614160223
 40
65.2525176566935
 40
67.58956068687603
 40
69.74648012912328
 40
71.90339957137053
 40
71.90339957137053
 40
71.90339957137053
 40
71.90339957137053
 10
24.44210817120587
 20
-12.88274101773126
 30
7.728043479598835
 10
25.48317290789118
 20
-11.89054890188154
 30
7.728043479598845
 10
26.79303614102656
 20
-10.05345565182027
 30
7.728043479598826
 10
27.76704719987671
 20
-7.203380248276908
 30
7.728043479598835
 10
28.06111108509088
 20
-4.872774442144975
 30
7.728043479598836
 10
27.87586243419993
 20
-2.530657121436309
 30
7.728043479598823
 10
27.23662286858112
 20
-0.3329210195408382
 30
7.728043479598848
 10
26.20934636286712
 20
1.642895476993399
 30
7.728043479598823
 10
24.86756984433202
 20
3.343867344447152
 30
7.728043479598835
 10
23.23076700765916
 20
4.763320449085457
 30
7.728043479598839
 10
21.30489119221696
 20
5.881256934600957
 30
7.728043479598832
 10
19.13917253044231
 20
6.622096335162372
 30
7.728043479598846
 10
16.80832504517262
 20
6.915814494181273
 30
7.728043479598825
 10
14.46634632677248
 20
6.730763813111807
 30
7.728043479598854
 10
12.26853182664881
 20
6.091412305789105
 30
7.728043479598826
 10
10.29275861125852
 20
5.06419759490601
 30
7.72804347959884
 10
8.591762842767514
 20
3.722386952012228
 30
7.728043479598841
 10
7.172323113420219
 20
2.085603211193833
 30
7.728043479598834
 10
6.054379048160046
 20
0.1597165755301058
 30
7.728043479598842
 10
5.313543994494364
 20
-2.005995884784936
 30
7.728043479598825
 10
5.019780066805701
 20
-4.336875087389796
 30
7.728043479598843
 10
5.204905903791888
 20
-6.678803789031413
 30
7.728043479598825
 10
5.844208587574108
 20
-8.876650687237513
 30
7.728043479598832
 10
6.871451039560451
 20
-10.85240550277497
 30
7.728043479598837
 10
8.213246268259876
 20
-12.5534114936937
 30
7.728043479598829
 10
9.850035591607083
 20
-13.97285803039187
 30
7.728043479598835
 10
11.7759299561775
 20
-15.09076532557911
 30
7.728043479598839
 10
13.94163042766515
 20
-15.83165660046484
 30
7.728043479598837
 10
15.88401371901259
 20
-16.07636477882945
 30
7.728043479598838
 10
17.44347505394476
 20
-16.03285653910853
 30
7.728043479598832
 10
18.99042508661746
 20
-15.83090196687916
 30
7.728043479598838
 10
20.81228299150201
 20
-15.30096859372469
 30
7.72804347959883
 10
22.78804148148036
 20
-14.27370210180166
 30
7.72804347959883
 10
23.92206746735012
 20
-13.37922133029645
 30
7.728043479598836
 10
24.44210817120587
 20
-12.88274101773126
 30
7.728043479598835
  0
LINE
  5
235
330
1F
100
AcDbEntity
  8
MARBLE
100
AcDbLine
 10
24.45591768613951
 20
-12.89720812861413
 30
8.458043479598832
 11
24.44210817120587
 21
-12.88274101773126
 31
8.478043479598837
  0
SPLINE
  5
236
330
1F
100
AcDbEntity
  8
MARBLE
100
AcDbSpline
210
0.0
220
0.0
230
1.0
 70
    11
 71
     3
 72
    39
 73
    35
 74
     0
 42
0.000000001
 43
0.0000000001
 40
0.0
 40
0.0
 40
0.0
 40
0.0
 40
4.31383888449451
 40
6.650881914677047
 40
8.987924944859584
 40
11.32496797660365
 40
13.66201100834772
 40
15.81893045059497
 40
17.97584989284223
 40
20.13276933508948
 40
22.28968877733675
 40
24.62673180751928
 40
26.96377483770181
 40
29.30081786944587
 40
31.63786090118993
 40
33.79478034343803
 40
35.95169978568612
 40
38.10861922793337
 40
40.26553867018063
 40
42.60258170192471
 40
44.93962473366878
 40
47.27666776385131
 40
49.61371079403384
 40
51.77063023628109
 40
53.92754967852834
 40
56.08446912077559
 40
58.24138856302284
 40
60.5784315947669
 40
62.91547462651095
 40
64.08399614160223
 40
65.2525176566935
 40
67.58956068687606
 40
69.74648012912328
 40
71.90339957137053
 40
71.90339957137053
 40
71.90339957137053
 40
71.90339957137053
 10
24.44210817120586
 20
-12.88274101773126
 30
8.478043479598835
 10
25.48317290789115
 20
-11.89054890188154
 30
8.47804347959884
 10
26.79303614102657
 20
-10.05345565182026
 30
8.47804347959883
 10
27.76704719987672
 20
-7.203380248276919
 30
8.478043479598849
 10
28.06111108509085
 20
-4.872774442144963
 30
8.478043479598812
 10
27.87586243419996
 20
-2.530657121436319
 30
8.47804347959884
 10
27.23662286858111
 20
-0.3329210195408322
 30
8.478043479598835
 10
26.20934636286714
 20
1.642895476993389
 30
8.478043479598837
 10
24.86756984433207
 20
3.343867344447163
 30
8.478043479598846
 10
23.2307670076591
 20
4.763320449085455
 30
8.47804347959883
 10
21.304891192217
 20
5.881256934600962
 30
8.478043479598849
 10
19.13917253044226
 20
6.62209633516237
 30
8.478043479598833
 10
16.80832504517265
 20
6.915814494181276
 30
8.478043479598833
 10
14.46634632677245
 20
6.730763813111799
 30
8.478043479598835
 10
12.26853182664885
 20
6.09141230578911
 30
8.47804347959884
 10
10.29275861125847
 20
5.064197594905998
 30
8.478043479598828
 10
8.59176284276754
 20
3.722386952012243
 30
8.478043479598842
 10
7.172323113420191
 20
2.08560321119382
 30
8.478043479598828
 10
6.054379048160057
 20
0.1597165755301033
 30
8.478043479598844
 10
5.313543994494358
 20
-2.005995884784953
 30
8.478043479598826
 10
5.0197800668057
 20
-4.336875087389784
 30
8.47804347959884
 10
5.204905903791897
 20
-6.678803789031427
 30
8.478043479598846
 10
5.844208587574099
 20
-8.876650687237497
 30
8.47804347959882
 10
6.871451039560462
 20
-10.85240550277499
 30
8.478043479598849
 10
8.213246268259882
 20
-12.55341149369371
 30
8.478043479598835
 10
9.850035591607094
 20
-13.97285803039188
 30
8.478043479598835
 10
11.77592995617749
 20
-15.09076532557912
 30
8.478043479598837
 10
13.94163042766516
 20
-15.83165660046482
 30
8.478043479598835
 10
15.88401371901258
 20
-16.07636477882945
 30
8.478043479598826
 10
17.4434750539448
 20
-16.03285653910853
 30
8.47804347959884
 10
18.99042508661744
 20
-15.83090196687916
 30
8.47804347959883
 10
20.81228299150202
 20
-15.30096859372472
 30
8.478043479598849
 10
22.78804148148031
 20
-14.27370210180167
 30
8.478043479598835
 10
23.92206746735013
 20
-13.37922133029646
 30
8.478043479598838
 10
24.44210817120586
 20
-12.88274101773126
 30
8.478043479598835
  0
CIRCLE
  5
237
330
1F
100
AcDbEntity
  8
MARBLE
100
AcDbCircle
 10
16.54040470910702
 20
-4.604765962199134
 30
8.103043479598835
 40
11.46385374875776
  0
LINE
  5
238
330
1F
100
AcDbEntity
  8
MARBLE
100
AcDbLine
 10
24.83284687552201
 20
3.310747014833364
 30
7.748043479598834
 11
24.83284687552201
 21
3.310747014833364
 31
8.458043479598835
  0
LINE
  5
239
330
1F
100
AcDbEntity
  8
MARBLE
100
AcDbLine
 10
8.62489173207453
 20
3.687676204215872
 30
7.748043479598834
 11
8.62489173207453
 21
3.687676204215872
 31
8.458043479598835
  0
LINE
  5
23A
330
1F
100
AcDbEntity
  8
MARBLE
100
AcDbLine
 10
8.247962542692022
 20
-12.52027893923162
 30
7.748043479598834
 11
8.247962542692022
 21
-12.52027893923162
 31
8.458043479598835
  0
LINE
  5
23B
330
1F
100
AcDbEntity
  8
MARBLE
100
AcDbLine
 10
5.096512514290175
 20
-4.604765962199121
 30
7.728043479598835
 11
27.98431566768837
 21
-4.604765962199121
 31
7.728043479598835
  0
LINE
  5
23C
330
1F
100
AcDbEntity
  8
MARBLE
100
AcDbLine
 10
16.54040470910702
 20
-16.04863022573695
 30
7.728043479598835
 11
16.54040470910702
 21
6.839104595976603
 31
7.728043479598835
  0
LINE
  5
23D
330
1F
100
AcDbEntity
  8
MARBLE
100
AcDbLine
 10
5.096512514290175
 20
-4.604765962199121
 30
8.478043479598835
 11
27.98431566768837
 21
-4.604765962199121
 31
8.478043479598835
  0
LINE
  5
23E
330
1F
100
AcDbEntity
  8
MARBLE
100
AcDbLine
 10
16.54040470910702
 20
-16.04863022573695
 30
8.478043479598835
 11
16.54040470910702
 21
6.839104595976613
 31
8.478043479598835
  0
SPLINE
  5
23F
330
1F
100
AcDbEntity
  8
MARBLE
100
AcDbSpline
210
0.0
220
0.0
230
1.0
 70
    11
 71
     3
 72
    39
 73
    35
 74
     0
 42
0.000000001
 43
0.0000000001
 40
0.0
 40
0.0
 40
0.0
 40
0.0
 40
4.313838884494514
 40
6.650881914677046
 40
8.987924944859579
 40
11.32496797660365
 40
13.66201100834771
 40
15.81893045059497
 40
17.97584989284222
 40
20.13276933508948
 40
22.28968877733675
 40
24.62673180751929
 40
26.96377483770184
 40
29.3008178694459
 40
31.63786090118997
 40
33.79478034343805
 40
35.95169978568612
 40
38.10861922793339
 40
40.26553867018065
 40
42.60258170192471
 40
44.93962473366877
 40
47.27666776385131
 40
49.61371079403384
 40
51.77063023628109
 40
53.92754967852834
 40
56.08446912077559
 40
58.24138856302284
 40
60.5784315947669
 40
62.91547462651096
 40
64.08399614160223
 40
65.2525176566935
 40
67.58956068687603
 40
69.74648012912328
 40
71.90339957137053
 40
71.90339957137053
 40
71.90339957137053
 40
71.90339957137053
 10
24.44901292867269
 20
-12.88997457317269
 30
7.738043479598834
 10
25.49098738049434
 20
-11.89691544804753
 30
7.738043479598845
 10
26.80199521353815
 20
-10.05821688989868
 30
7.738043479598826
 10
27.77685739374081
 20
-7.205650996990004
 30
7.738043479598836
 10
28.07117824130438
 20
-4.873008637324698
 30
7.738043479598829
 10
27.88576771405266
 20
-2.528844701373496
 30
7.738043479598826
 10
27.24596956122156
 20
-0.3291881457986076
 30
7.738043479598846
 10
26.21779538865255
 20
1.648354879842802
 30
7.73804347959882
 10
24.87484638357898
 20
3.350813111011373
 30
7.738043479598836
 10
23.23661325680314
 20
4.771506577981848
 30
7.73804347959884
 10
21.30905455150315
 20
5.890419951996639
 30
7.738043479598831
 10
19.14144341293563
 20
6.631906721045813
 30
7.738043479598844
 10
16.80855916356473
 20
6.925881540391307
 30
7.738043479598822
 10
14.46453395065416
 20
6.740669155892766
 30
7.738043479598855
 10
12.26479892856258
 20
6.100758963573085
 30
7.738043479598823
 10
10.28729922179738
 20
5.072646639859284
 30
7.73804347959884
 10
8.584817068675594
 20
3.729663480583336
 30
7.738043479598839
 10
7.164136988727211
 20
2.091449466710106
 30
7.738043479598834
 10
6.045216028375514
 20
0.1638799306122387
 30
7.738043479598838
 10
5.303733610051022
 20
-2.003724997931466
 30
7.738043479598826
 10
5.009712982003608
 20
-4.33664099799217
 30
7.73804347959884
 10
5.195000587920067
 20
-6.680616144853372
 30
7.738043479598827
 10
5.834861914295177
 20
-8.880383596664029
 30
7.738043479598829
 10
6.863002003213539
 20
-10.85786488602076
 30
7.738043479598836
 10
8.205969734806255
 20
-12.56035727120148
 30
7.738043479598829
 10
9.844189336271905
 20
-13.98104416407417
 30
7.738043479598832
 10
11.77176660800047
 20
-15.09992832252065
 30
7.738043479598838
 10
13.93935953674004
 20
-15.84146701103672
 30
7.738043479598836
 10
15.88344014701022
 20
-16.0863890232167
 30
7.738043479598835
 10
17.44426418304645
 20
-16.04284276480816
 30
7.738043479598834
 10
18.99256599040526
 20
-15.8407117180011
 30
7.738043479598835
 10
20.81601589424493
 20
-15.31031527278738
 30
7.738043479598831
 10
22.79350086272566
 20
-14.28215112275182
 30
7.738043479598829
 10
23.92851779717286
 20
-13.38688872593547
 30
7.738043479598836
 10
24.44901292867269
 20
-12.88997457317269
 30
7.738043479598834
  0
LINE
  5
240
330
1F
100
AcDbEntity
  8
MARBLE
100
AcDbLine
 10
26.95268436813355
 20
-9.401407894562343
 30
7.748043479598833
 11
26.93451895898205
 21
-9.393039605857533
 31
7.728043479598831
  0
LINE
  5
241
330
1F
100
AcDbEntity
  8
MARBLE
100
AcDbLine
 10
27.70891125168823
 20
-7.18999491634559
 30
7.748043479598834
 11
27.68942651868149
 21
-7.185484692280281
 31
7.728043479598833
  0
LINE
  5
242
330
1F
100
AcDbEntity
  8
MARBLE
100
AcDbLine
 10
28.00122036191615
 20
-4.871320893446726
 30
7.748043479598827
 11
27.98122566239256
 21
-4.870855856989271
 31
7.728043479598832
  0
LINE
  5
243
330
1F
100
AcDbEntity
  8
MARBLE
100
AcDbLine
 10
27.8170613932738
 20
-2.541462479298245
 30
7.748043479598832
 11
27.79738798022716
 21
-2.545062145417655
 31
7.72804347959883
  0
LINE
  5
244
330
1F
100
AcDbEntity
  8
MARBLE
100
AcDbLine
 10
27.16431309113864
 20
-0.2974182806775205
 30
7.748043479598838
 11
27.14577847149178
 21
-0.3049329405109431
 31
7.72804347959884
  0
LINE
  5
245
330
1F
100
AcDbEntity
  8
MARBLE
100
AcDbLine
 10
26.16909113820723
 20
1.616860770901209
 30
7.748043479598826
 11
26.15229279693364
 21
1.606006433998219
 31
7.72804347959883
  0
LINE
  5
246
330
1F
100
AcDbEntity
  8
MARBLE
100
AcDbLine
 10
24.83286593528149
 20
3.310757083312135
 30
7.748043479598835
 11
24.81839879130906
 21
3.296947550644575
 31
7.728043479598833
  0
LINE
  5
247
330
1F
100
AcDbEntity
  8
MARBLE
100
AcDbLine
 10
23.20290464262383
 20
4.724297177474885
 30
7.74804347959884
 11
23.19128115187497
 21
4.708021563206791
 31
7.728043479598837
  0
LINE
  5
248
330
1F
100
AcDbEntity
  8
MARBLE
100
AcDbLine
 10
21.33697367784026
 20
5.807408275274642
 30
7.748043479598836
 11
21.32860551611455
 21
5.789243049981028
 31
7.728043479598837
  0
LINE
  5
249
330
1F
100
AcDbEntity
  8
MARBLE
100
AcDbLine
 10
19.12567916678753
 20
6.563805165968337
 30
7.748043479598838
 11
19.12116886362516
 21
6.544320320307444
 31
7.728043479598841
  0
LINE
  5
24A
330
1F
100
AcDbEntity
  8
MARBLE
100
AcDbLine
 10
16.80693483357352
 20
6.856014325320583
 30
7.748043479598833
 11
16.80646984025797
 21
6.836019687485761
 31
7.728043479598833
  0
LINE
  5
24B
330
1F
100
AcDbEntity
  8
MARBLE
100
AcDbLine
 10
14.47711519761919
 20
6.671910663066564
 30
7.748043479598844
 11
14.48071483945671
 21
6.652237215261733
 31
7.728043479598843
  0
LINE
  5
24C
330
1F
100
AcDbEntity
  8
MARBLE
100
AcDbLine
 10
12.23304886381274
 20
6.019130764853662
 30
7.748043479598831
 11
12.24056353784592
 21
6.00059616553693
 31
7.728043479598833
  0
LINE
  5
24D
330
1F
100
AcDbEntity
  8
MARBLE
100
AcDbLine
 10
10.3187823232497
 20
5.023926673509994
 30
7.748043479598839
 11
10.32963665258494
 21
5.007128321369011
 31
7.728043479598838
  0
LINE
  5
24E
330
1F
100
AcDbEntity
  8
MARBLE
100
AcDbLine
 10
8.62487931245063
 20
3.687691907275902
 30
7.74804347959884
 11
8.63868884929124
 21
3.673224769024575
 31
7.72804347959884
  0
LINE
  5
24F
330
1F
100
AcDbEntity
  8
MARBLE
100
AcDbLine
 10
7.211342929139238
 20
2.057735912691207
 30
7.748043479598835
 11
7.227618541048745
 21
2.046112418310333
 31
7.728043479598836
  0
LINE
  5
250
330
1F
100
AcDbEntity
  8
MARBLE
100
AcDbLine
 10
6.128229750386287
 20
0.1918019768102037
 30
7.748043479598836
 11
6.14639497688734
 21
0.1834338170305289
 31
7.728043479598838
  0
LINE
  5
251
330
1F
100
AcDbEntity
  8
MARBLE
100
AcDbLine
 10
5.371826780221723
 20
-2.01949560091572
 30
7.748043479598833
 11
5.391311637656428
 21
-2.024005898750003
 31
7.728043479598831
  0
LINE
  5
252
330
1F
100
AcDbEntity
  8
MARBLE
100
AcDbLine
 10
5.079600347729526
 20
-4.33825170829674
 30
7.748043479598836
 11
5.099595027570729
 21
-4.338716671169683
 31
7.728043479598838
  0
LINE
  5
253
330
1F
100
AcDbEntity
  8
MARBLE
100
AcDbLine
 10
5.26373819349455
 20
-6.668048783129109
 30
7.748043479598832
 11
5.283411623822258
 21
-6.66444915463025
 31
7.72804347959883
  0
LINE
  5
254
330
1F
100
AcDbEntity
  8
MARBLE
100
AcDbLine
 10
5.916502587437044
 20
-8.912125383982893
 30
7.748043479598831
 11
5.935037196083075
 21
-8.904610703275209
 31
7.728043479598833
  0
LINE
  5
255
330
1F
100
AcDbEntity
  8
MARBLE
100
AcDbLine
 10
6.911714898485079
 20
-10.8263864745088
 30
7.748043479598834
 11
6.928513245725888
 21
-10.8155321487006
 31
7.728043479598834
  0
LINE
  5
256
330
1F
100
AcDbEntity
  8
MARBLE
100
AcDbLine
 10
8.247944808868985
 20
-12.52029446031001
 30
7.748043479598833
 11
8.262411950701173
 21
-12.50648491799028
 31
7.728043479598831
  0
LINE
  5
257
330
1F
100
AcDbEntity
  8
MARBLE
100
AcDbLine
 10
9.877903213807718
 20
-13.93383112353814
 30
7.748043479598833
 11
9.889526707333635
 21
-13.91755550583126
 31
7.728043479598835
  0
LINE
  5
258
330
1F
100
AcDbEntity
  8
MARBLE
100
AcDbLine
 10
11.74384133367387
 20
-15.016929843653
 30
7.748043479598838
 11
11.75220948542782
 21
-14.99876463636091
 31
7.728043479598838
  0
LINE
  5
259
330
1F
100
AcDbEntity
  8
MARBLE
100
AcDbLine
 10
13.95512897645173
 20
-15.7733451807521
 30
7.748043479598838
 11
13.95963928359015
 21
-15.75386032107471
 31
7.728043479598838
  0
LINE
  5
25A
330
1F
100
AcDbEntity
  8
MARBLE
100
AcDbLine
 10
16.27387695919215
 20
-16.06554278551347
 30
7.748043479598834
 11
16.27434194498315
 21
-16.04554815370608
 31
7.728043479598835
  0
LINE
  5
25B
330
1F
100
AcDbEntity
  8
MARBLE
100
AcDbLine
 10
17.44348666782646
 20
-16.03298858496991
 30
7.748043479598836
 11
17.44191114122745
 21
-16.01305074754315
 31
7.728043479598833
  0
LINE
  5
25C
330
1F
100
AcDbEntity
  8
MARBLE
100
AcDbLine
 10
18.60369546529758
 20
-15.88144089918998
 30
7.748043479598834
 11
18.60009582212151
 21
-15.86176745421152
 31
7.728043479598835
  0
LINE
  5
25D
330
1F
100
AcDbEntity
  8
MARBLE
100
AcDbLine
 10
20.84776241066562
 20
-15.22866850426023
 30
7.748043479598834
 11
20.84024773356249
 21
-15.21013389483607
 31
7.728043479598831
  0
LINE
  5
25E
330
1F
100
AcDbEntity
  8
MARBLE
100
AcDbLine
 10
22.76202735938897
 20
-14.23345448398016
 30
7.748043479598834
 11
22.75117302956576
 21
-14.21665613902169
 31
7.728043479598831
  0
SPLINE
  5
25F
330
1F
100
AcDbEntity
  8
MARBLE
100
AcDbSpline
210
0.0
220
0.0
230
1.0
 70
    11
 71
     3
 72
    39
 73
    35
 74
     0
 42
0.000000001
 43
0.0000000001
 40
0.0
 40
0.0
 40
0.0
 40
0.0
 40
4.31383888449451
 40
6.650881914677047
 40
8.987924944859584
 40
11.32496797660365
 40
13.66201100834772
 40
15.81893045059497
 40
17.97584989284223
 40
20.13276933508948
 40
22.28968877733675
 40
24.62673180751928
 40
26.96377483770181
 40
29.30081786944587
 40
31.63786090118993
 40
33.79478034343803
 40
35.95169978568612
 40
38.10861922793337
 40
40.26553867018063
 40
42.60258170192471
 40
44.93962473366878
 40
47.27666776385131
 40
49.61371079403384
 40
51.77063023628109
 40
53.92754967852834
 40
56.08446912077559
 40
58.24138856302284
 40
60.5784315947669
 40
62.91547462651095
 40
64.08399614160223
 40
65.2525176566935
 40
67.58956068687606
 40
69.74648012912328
 40
71.90339957137053
 40
71.90339957137053
 40
71.90339957137053
 40
71.90339957137053
 10
24.44901292867269
 20
-12.88997457317269
 30
8.468043479598835
 10
25.49098738049431
 20
-11.89691544804753
 30
8.468043479598842
 10
26.80199521353817
 20
-10.05821688989868
 30
8.468043479598826
 10
27.77685739374083
 20
-7.205650996990013
 30
8.468043479598848
 10
28.07117824130435
 20
-4.873008637324689
 30
8.468043479598814
 10
27.8857677140527
 20
-2.528844701373505
 30
8.468043479598837
 10
27.24596956122154
 20
-0.329188145798603
 30
8.468043479598837
 10
26.2177953886526
 20
1.648354879842793
 30
8.468043479598833
 10
24.87484638357902
 20
3.350813111011384
 30
8.46804347959885
 10
23.2366132568031
 20
4.771506577981846
 30
8.468043479598824
 10
21.30905455150318
 20
5.890419951996651
 30
8.468043479598851
 10
19.14144341293559
 20
6.63190672104581
 30
8.468043479598833
 10
16.80855916356477
 20
6.925881540391316
 30
8.468043479598835
 10
14.46453395065413
 20
6.740669155892753
 30
8.468043479598833
 10
12.26479892856261
 20
6.100758963573097
 30
8.468043479598844
 10
10.28729922179734
 20
5.072646639859268
 30
8.468043479598823
 10
8.584817068675616
 20
3.729663480583357
 30
8.468043479598844
 10
7.16413698872719
 20
2.091449466710091
 30
8.468043479598823
 10
6.045216028375522
 20
0.1638799306122374
 30
8.468043479598848
 10
5.303733610051017
 20
-2.003724997931482
 30
8.468043479598823
 10
5.009712982003608
 20
-4.336640997992159
 30
8.468043479598844
 10
5.195000587920076
 20
-6.680616144853385
 30
8.468043479598842
 10
5.834861914295169
 20
-8.880383596664018
 30
8.46804347959882
 10
6.863002003213547
 20
-10.85786488602078
 30
8.468043479598848
 10
8.205969734806263
 20
-12.56035727120149
 30
8.468043479598837
 10
9.844189336271917
 20
-13.98104416407418
 30
8.468043479598833
 10
11.77176660800046
 20
-15.09992832252065
 30
8.468043479598837
 10
13.93935953674005
 20
-15.8414670110367
 30
8.468043479598837
 10
15.88344014701021
 20
-16.08638902321671
 30
8.468043479598828
 10
17.4442641830465
 20
-16.04284276480817
 30
8.468043479598842
 10
18.99256599040524
 20
-15.8407117180011
 30
8.468043479598828
 10
20.81601589424496
 20
-15.3103152727874
 30
8.46804347959885
 10
22.79350086272562
 20
-14.28215112275184
 30
8.468043479598833
 10
23.92851779717287
 20
-13.38688872593548
 30
8.46804347959884
 10
24.44901292867269
 20
-12.88997457317269
 30
8.468043479598835
  0
LINE
  5
260
330
1F
100
AcDbEntity
  8
MARBLE
100
AcDbLine
 10
26.95268436813355
 20
-9.401407894562343
 30
8.458043479598832
 11
26.93451895898205
 21
-9.393039605857535
 31
8.478043479598837
  0
LINE
  5
261
330
1F
100
AcDbEntity
  8
MARBLE
100
AcDbLine
 10
27.70891125168824
 20
-7.189994916345594
 30
8.458043479598839
 11
27.68942651868149
 21
-7.185484692280286
 31
8.47804347959884
  0
LINE
  5
262
330
1F
100
AcDbEntity
  8
MARBLE
100
AcDbLine
 10
28.00122036191612
 20
-4.871320893446723
 30
8.458043479598825
 11
27.98122566239254
 21
-4.870855856989267
 31
8.478043479598822
  0
LINE
  5
263
330
1F
100
AcDbEntity
  8
MARBLE
100
AcDbLine
 10
27.81706139327382
 20
-2.541462479298248
 30
8.458043479598832
 11
27.79738798022716
 21
-2.545062145417657
 31
8.478043479598835
  0
LINE
  5
264
330
1F
100
AcDbEntity
  8
MARBLE
100
AcDbLine
 10
27.16431309113863
 20
-0.297418280677519
 30
8.458043479598837
 11
27.14577847149178
 21
-0.3049329405109406
 31
8.478043479598837
  0
LINE
  5
265
330
1F
100
AcDbEntity
  8
MARBLE
100
AcDbLine
 10
26.16909113820727
 20
1.616860770901206
 30
8.458043479598835
 11
26.15229279693365
 21
1.606006433998215
 31
8.478043479598837
  0
LINE
  5
266
330
1F
100
AcDbEntity
  8
MARBLE
100
AcDbLine
 10
24.83286593528151
 20
3.310757083312142
 30
8.458043479598844
 11
24.81839879130909
 21
3.296947550644581
 31
8.478043479598842
  0
LINE
  5
267
330
1F
100
AcDbEntity
  8
MARBLE
100
AcDbLine
 10
23.20290464262381
 20
4.724297177474885
 30
8.45804347959883
 11
23.19128115187494
 21
4.708021563206792
 31
8.478043479598835
  0
LINE
  5
268
330
1F
100
AcDbEntity
  8
MARBLE
100
AcDbLine
 10
21.33697367784026
 20
5.807408275274652
 30
8.458043479598844
 11
21.32860551611455
 21
5.789243049981032
 31
8.478043479598844
  0
LINE
  5
269
330
1F
100
AcDbEntity
  8
MARBLE
100
AcDbLine
 10
19.12567916678752
 20
6.563805165968338
 30
8.458043479598839
 11
19.12116886362514
 21
6.544320320307446
 31
8.478043479598838
  0
LINE
  5
26A
330
1F
100
AcDbEntity
  8
MARBLE
100
AcDbLine
 10
16.80693483357353
 20
6.856014325320588
 30
8.458043479598835
 11
16.80646984025798
 21
6.836019687485761
 31
8.478043479598833
  0
LINE
  5
26B
330
1F
100
AcDbEntity
  8
MARBLE
100
AcDbLine
 10
14.47711519761919
 20
6.671910663066558
 30
8.458043479598837
 11
14.48071483945671
 21
6.652237215261733
 31
8.478043479598838
  0
LINE
  5
26C
330
1F
100
AcDbEntity
  8
MARBLE
100
AcDbLine
 10
12.23304886381276
 20
6.019130764853668
 30
8.45804347959884
 11
12.24056353784594
 21
6.000596165536932
 31
8.478043479598838
  0
LINE
  5
26D
330
1F
100
AcDbEntity
  8
MARBLE
100
AcDbLine
 10
10.31878232324969
 20
5.023926673509988
 30
8.458043479598828
 11
10.32963665258492
 21
5.007128321369009
 31
8.478043479598831
  0
LINE
  5
26E
330
1F
100
AcDbEntity
  8
MARBLE
100
AcDbLine
 10
8.624879312450622
 20
3.687691907275904
 30
8.458043479598837
 11
8.638688849291233
 21
3.673224769024571
 31
8.478043479598837
  0
LINE
  5
26F
330
1F
100
AcDbEntity
  8
MARBLE
100
AcDbLine
 10
7.211342929139229
 20
2.057735912691201
 30
8.458043479598828
 11
7.227618541048735
 21
2.046112418310328
 31
8.478043479598833
  0
LINE
  5
270
330
1F
100
AcDbEntity
  8
MARBLE
100
AcDbLine
 10
6.128229750386288
 20
0.191801976810206
 30
8.458043479598842
 11
6.146394976887345
 21
0.1834338170305301
 31
8.478043479598838
  0
LINE
  5
271
330
1F
100
AcDbEntity
  8
MARBLE
100
AcDbLine
 10
5.371826780221721
 20
-2.019495600915728
 30
8.458043479598832
 11
5.391311637656425
 21
-2.024005898750013
 31
8.478043479598831
  0
LINE
  5
272
330
1F
100
AcDbEntity
  8
MARBLE
100
AcDbLine
 10
5.079600347729527
 20
-4.338251708296744
 30
8.458043479598842
 11
5.099595027570728
 21
-4.338716671169688
 31
8.478043479598838
  0
LINE
  5
273
330
1F
100
AcDbEntity
  8
MARBLE
100
AcDbLine
 10
5.263738193494555
 20
-6.668048783129112
 30
8.458043479598837
 11
5.283411623822261
 21
-6.664449154630254
 31
8.47804347959884
  0
LINE
  5
274
330
1F
100
AcDbEntity
  8
MARBLE
100
AcDbLine
 10
5.916502587437041
 20
-8.912125383982893
 30
8.45804347959883
 11
5.935037196083072
 21
-8.904610703275203
 31
8.47804347959883
  0
LINE
  5
275
330
1F
100
AcDbEntity
  8
MARBLE
100
AcDbLine
 10
6.911714898485084
 20
-10.82638647450881
 30
8.458043479598839
 11
6.928513245725895
 21
-10.81553214870061
 31
8.478043479598842
  0
LINE
  5
276
330
1F
100
AcDbEntity
  8
MARBLE
100
AcDbLine
 10
8.247944808868994
 20
-12.52029446031002
 30
8.458043479598839
 11
8.26241195070118
 21
-12.50648491799029
 31
8.478043479598838
  0
LINE
  5
277
330
1F
100
AcDbEntity
  8
MARBLE
100
AcDbLine
 10
9.877903213807727
 20
-13.93383112353816
 30
8.458043479598835
 11
9.88952670733364
 21
-13.91755550583127
 31
8.478043479598835
  0
LINE
  5
278
330
1F
100
AcDbEntity
  8
MARBLE
100
AcDbLine
 10
11.74384133367387
 20
-15.016929843653
 30
8.458043479598839
 11
11.75220948542782
 21
-14.99876463636091
 31
8.478043479598837
  0
LINE
  5
279
330
1F
100
AcDbEntity
  8
MARBLE
100
AcDbLine
 10
13.95512897645174
 20
-15.77334518075209
 30
8.458043479598835
 11
13.95963928359015
 21
-15.75386032107469
 31
8.478043479598833
  0
LINE
  5
27A
330
1F
100
AcDbEntity
  8
MARBLE
100
AcDbLine
 10
16.27387695919216
 20
-16.06554278551348
 30
8.458043479598835
 11
16.27434194498315
 21
-16.04554815370608
 31
8.478043479598831
  0
LINE
  5
27B
330
1F
100
AcDbEntity
  8
MARBLE
100
AcDbLine
 10
17.4434866678265
 20
-16.03298858496991
 30
8.458043479598839
 11
17.44191114122748
 21
-16.01305074754316
 31
8.478043479598837
  0
LINE
  5
27C
330
1F
100
AcDbEntity
  8
MARBLE
100
AcDbLine
 10
18.60369546529758
 20
-15.88144089918998
 30
8.458043479598834
 11
18.60009582212151
 21
-15.86176745421152
 31
8.478043479598835
  0
LINE
  5
27D
330
1F
100
AcDbEntity
  8
MARBLE
100
AcDbLine
 10
20.84776241066564
 20
-15.22866850426023
 30
8.45804347959884
 11
20.8402477335625
 21
-15.21013389483608
 31
8.478043479598842
  0
LINE
  5
27E
330
1F
100
AcDbEntity
  8
MARBLE
100
AcDbLine
 10
22.76202735938895
 20
-14.23345448398018
 30
8.458043479598837
 11
22.75117302956574
 21
-14.2166561390217
 31
8.478043479598838
  0
LINE
  5
27F
330
1F
100
AcDbEntity
  8
MARBLE
100
AcDbLine
 10
-8.305626426996753
 20
-9.158523398936683
 30
7.748037513525608
 11
-8.305626426996755
 21
-9.15852339893668
 31
8.458037513525605
  0
LINE
  5
280
330
1F
100
AcDbEntity
  8
MARBLE
100
AcDbLine
 10
-8.305626426996753
 20
15.79902874965646
 30
8.458037513525607
 11
-8.305626426996753
 21
15.79902874965646
 31
7.748037513525606
  0
LINE
  5
281
330
1F
100
AcDbEntity
  8
MARBLE
100
AcDbLine
 10
-8.325626426996752
 20
15.81902874965646
 30
8.458037513525605
 11
-8.325626426996756
 21
15.81902874965646
 31
7.748037513525607
  0
LINE
  5
282
330
1F
100
AcDbEntity
  8
MARBLE
100
AcDbLine
 10
-16.06613456121408
 20
15.81902874965646
 30
7.748037513525607
 11
-16.06613456121408
 21
15.81902874965646
 31
8.458037513525605
  0
ARC
  5
283
330
1F
100
AcDbEntity
  8
MARBLE
100
AcDbCircle
 10
-16.0661345612141
 20
3.320252675359892
 30
8.458037513525607
 40
12.49877607429657
100
AcDbArc
 50
89.99999999999991
 51
270.0000000000001
  0
ARC
  5
284
330
1F
100
AcDbEntity
  8
MARBLE
100
AcDbCircle
 10
-16.0661345612141
 20
3.320252675359892
 30
7.748037513525606
 40
12.49877607429657
100
AcDbArc
 50
89.99999999999994
 51
270.0000000000001
  0
LINE
  5
285
330
1F
100
AcDbEntity
  8
MARBLE
100
AcDbLine
 10
-16.06613456121408
 20
-9.17852339893668
 30
7.748037513525606
 11
-16.06613456121408
 21
-9.17852339893668
 31
8.458037513525607
  0
LINE
  5
286
330
1F
100
AcDbEntity
  8
MARBLE
100
AcDbLine
 10
-8.325626427000246
 20
-9.178523398936681
 30
7.748037513525608
 11
-8.325626427000246
 21
-9.17852339893668
 31
8.458037513525607
  0
LINE
  5
287
330
1F
100
AcDbEntity
  8
MARBLE
100
AcDbLine
 10
-8.325626415093321
 20
15.79902874965646
 30
7.728037513525607
 11
-16.06613456121408
 21
15.79902874965647
 31
7.728037513525607
  0
LINE
  5
288
330
1F
100
AcDbEntity
  8
MARBLE
100
AcDbLine
 10
-16.06613456121269
 20
-9.158523398936689
 30
7.728037513525607
 11
-8.325626414985127
 21
-9.15852339893668
 31
7.728037513525607
  0
LINE
  5
289
330
1F
100
AcDbEntity
  8
MARBLE
100
AcDbLine
 10
-8.325626426996752
 20
15.79902874965646
 30
8.478037513525607
 11
-16.06613456121408
 21
15.79902874965647
 31
8.478037513525607
  0
LINE
  5
28A
330
1F
100
AcDbEntity
  8
MARBLE
100
AcDbLine
 10
-16.06613456121269
 20
-9.158523398936689
 30
8.478037513525607
 11
-8.325626414985125
 21
-9.15852339893668
 31
8.478037513525607
  0
LINE
  5
28B
330
1F
100
AcDbEntity
  8
MARBLE
100
AcDbLine
 10
-8.305626426996753
 20
-9.158523398936683
 30
7.748037513525608
 11
-8.305626426996753
 21
15.79902874965646
 31
7.748037513525606
  0
LINE
  5
28C
330
1F
100
AcDbEntity
  8
MARBLE
100
AcDbLine
 10
-8.305626426996753
 20
15.79902874965646
 30
7.748037513525606
 11
-8.325626415093321
 21
15.79902874965646
 31
7.728037513525607
  0
LINE
  5
28D
330
1F
100
AcDbEntity
  8
MARBLE
100
AcDbLine
 10
-8.325626414985127
 20
-9.15852339893668
 30
7.728037513525607
 11
-8.325626415093321
 21
15.79902874965646
 31
7.728037513525607
  0
LINE
  5
28E
330
1F
100
AcDbEntity
  8
MARBLE
100
AcDbLine
 10
-8.325626414985125
 20
-9.15852339893668
 30
8.478037513525607
 11
-8.325626426996752
 21
15.79902874965646
 31
8.478037513525607
  0
LINE
  5
28F
330
1F
100
AcDbEntity
  8
MARBLE
100
AcDbLine
 10
-8.305626426996755
 20
-9.15852339893668
 30
8.458037513525605
 11
-8.305626426996753
 21
15.79902874965646
 31
8.458037513525607
  0
LINE
  5
290
330
1F
100
AcDbEntity
  8
MARBLE
100
AcDbLine
 10
-8.325626427000246
 20
-9.178523398936681
 30
7.748037513525608
 11
-8.305626426996753
 21
-9.158523398936683
 31
7.748037513525608
  0
LINE
  5
291
330
1F
100
AcDbEntity
  8
MARBLE
100
AcDbLine
 10
-8.305626426996755
 20
-9.15852339893668
 30
8.458037513525605
 11
-8.325626427000246
 21
-9.17852339893668
 31
8.458037513525607
  0
LINE
  5
292
330
1F
100
AcDbEntity
  8
MARBLE
100
AcDbLine
 10
-8.325626415093321
 20
15.79902874965646
 30
7.728037513525607
 11
-8.325626426996756
 21
15.81902874965646
 31
7.748037513525607
  0
LINE
  5
293
330
1F
100
AcDbEntity
  8
MARBLE
100
AcDbLine
 10
-8.325626426996756
 20
15.81902874965646
 30
7.748037513525607
 11
-16.06613456121408
 21
15.81902874965646
 31
7.748037513525607
  0
LINE
  5
294
330
1F
100
AcDbEntity
  8
MARBLE
100
AcDbLine
 10
-16.06613456121408
 20
15.81902874965646
 30
7.748037513525607
 11
-16.06613456121408
 21
15.79902874965647
 31
7.728037513525607
  0
LINE
  5
295
330
1F
100
AcDbEntity
  8
MARBLE
100
AcDbLine
 10
-8.325626426996752
 20
15.79902874965646
 30
8.478037513525607
 11
-8.325626426996752
 21
15.81902874965646
 31
8.458037513525605
  0
LINE
  5
296
330
1F
100
AcDbEntity
  8
MARBLE
100
AcDbLine
 10
-8.325626426996752
 20
15.81902874965646
 30
8.458037513525605
 11
-16.06613456121408
 21
15.81902874965646
 31
8.458037513525605
  0
LINE
  5
297
330
1F
100
AcDbEntity
  8
MARBLE
100
AcDbLine
 10
-16.06613456121408
 20
15.81902874965646
 30
8.458037513525605
 11
-16.06613456121408
 21
15.79902874965647
 31
8.478037513525607
  0
SPLINE
  5
298
330
1F
100
AcDbEntity
  8
MARBLE
100
AcDbSpline
210
0.0
220
0.0
230
1.0
 70
     8
 71
     3
 72
    23
 73
    19
 74
     0
 42
0.000000001
 43
0.0000000001
 40
-0.0000000000000017
 40
-0.0000000000000017
 40
-0.0000000000000017
 40
-0.0000000000000017
 40
2.35197996418138
 40
4.703959928362755
 40
7.252352916409846
 40
9.800745904456937
 40
12.34913889420068
 40
14.89753188394442
 40
17.2495118481267
 40
19.60149181230897
 40
21.95347177649035
 40
24.30545174067173
 40
26.85384473041546
 40
29.40223772015919
 40
31.95063070820629
 40
34.4990236962534
 40
36.85100366043477
 40
39.20298362461615
 40
39.20298362461615
 40
39.20298362461615
 40
39.20298362461615
 10
-16.06613456121408
 20
15.79902874965647
 30
7.728037513525607
 10
-16.85012760709512
 20
15.79907458310993
 30
7.728037513525613
 10
-18.41810532051576
 20
15.65081572236354
 30
7.728037513525596
 10
-20.74995347567505
 20
14.97347798726713
 30
7.728037513525607
 10
-22.9649036639096
 20
13.82299877366722
 30
7.728037513525606
 10
-24.95152681201541
 20
12.205644515316
 30
7.728037513525614
 10
-26.56887939849067
 20
10.21902503168014
 30
7.7280375135256
 10
-27.71935502918206
 20
8.004072926008108
 30
7.728037513525617
 10
-28.3967121670418
 20
5.672227776747948
 30
7.728037513525599
 10
-28.6190418273772
 20
3.320256154298808
 30
7.728037513525624
 10
-28.39671496925815
 20
0.968276206093708
 30
7.728037513525596
 10
-27.71935074146623
 20
-1.363562781578284
 30
7.728037513525617
 10
-26.56888578493436
 20
-3.578518433624537
 30
7.728037513525585
 10
-24.95152353356267
 20
-5.565138446395382
 30
7.728037513525621
 10
-22.96490849584854
 20
-7.18249342744497
 30
7.728037513525596
 10
-20.74995462552107
 20
-8.332976365604875
 30
7.728037513525616
 10
-18.4181062148712
 20
-9.010306373894972
 30
7.728037513525605
 10
-16.85013286035233
 20
-9.158580075139742
 30
7.728037513525613
 10
-16.06613456121269
 20
-9.158523398936689
 30
7.728037513525607
  0
SPLINE
  5
299
330
1F
100
AcDbEntity
  8
MARBLE
100
AcDbSpline
210
0.0
220
0.0
230
1.0
 70
     8
 71
     3
 72
    23
 73
    19
 74
     0
 42
0.000000001
 43
0.0000000001
 40
-0.0000000240413455
 40
-0.0000000240413455
 40
-0.0000000240413455
 40
-0.0000000240413455
 40
2.351979941578688
 40
4.70395990719872
 40
7.252352896804618
 40
9.800745886410521
 40
12.34913887771306
 40
14.8975318690156
 40
17.24951183463654
 40
19.60149180025747
 40
21.9534717658775
 40
24.30545173149753
 40
26.85384472280008
 40
29.40223771410261
 40
31.95063070370851
 40
34.4990236933144
 40
36.85100365893443
 40
39.20298362455446
 40
39.20298362455446
 40
39.20298362455446
 40
39.20298362455446
 10
-16.06613456121408
 20
15.79902874965647
 30
8.478037513525607
 10
-16.8501276070951
 20
15.7990745831099
 30
8.478037513525607
 10
-18.41810532051577
 20
15.65081572236355
 30
8.478037513525605
 10
-20.74995347567505
 20
14.97347798726713
 30
8.478037513525608
 10
-22.9649036639096
 20
13.82299877366721
 30
8.478037513525601
 10
-24.95152681201539
 20
12.205644515316
 30
8.478037513525608
 10
-26.56887939849069
 20
10.21902503168013
 30
8.478037513525603
 10
-27.71935502918204
 20
8.004072926008108
 30
8.478037513525608
 10
-28.39671216704184
 20
5.672227776747953
 30
8.478037513525607
 10
-28.61904182737712
 20
3.320256154298808
 30
8.478037513525614
 10
-28.39671496925822
 20
0.9682762060937068
 30
8.478037513525615
 10
-27.71935074146622
 20
-1.363562781578292
 30
8.478037513525608
 10
-26.56888578493438
 20
-3.578518433624535
 30
8.478037513525596
 10
-24.95152353356263
 20
-5.565138446395366
 30
8.4780375135256
 10
-22.96490849584855
 20
-7.182493427444987
 30
8.478037513525617
 10
-20.74995462552105
 20
-8.332976365604862
 30
8.478037513525603
 10
-18.41810621487121
 20
-9.01030637389498
 30
8.478037513525623
 10
-16.85013286035232
 20
-9.158580075139733
 30
8.478037513525605
 10
-16.06613456121269
 20
-9.158523398936689
 30
8.478037513525607
  0
LINE
  5
29A
330
1F
100
AcDbEntity
  8
MARBLE
100
AcDbLine
 10
-16.06613456121408
 20
-9.17852339893668
 30
8.458037513525607
 11
-16.06613456121269
 21
-9.158523398936689
 31
8.478037513525607
  0
LINE
  5
29B
330
1F
100
AcDbEntity
  8
MARBLE
100
AcDbLine
 10
-8.325626427000246
 20
-9.178523398936681
 30
7.748037513525608
 11
-8.325626414985127
 21
-9.15852339893668
 31
7.728037513525607
  0
LINE
  5
29C
330
1F
100
AcDbEntity
  8
MARBLE
100
AcDbLine
 10
-16.06613456121408
 20
-9.17852339893668
 30
7.748037513525606
 11
-8.325626427000246
 21
-9.178523398936681
 31
7.748037513525608
  0
LINE
  5
29D
330
1F
100
AcDbEntity
  8
MARBLE
100
AcDbLine
 10
-16.06613456121269
 20
-9.158523398936689
 30
7.728037513525607
 11
-16.06613456121408
 21
-9.17852339893668
 31
7.748037513525606
  0
LINE
  5
29E
330
1F
100
AcDbEntity
  8
MARBLE
100
AcDbLine
 10
-8.325626427000246
 20
-9.17852339893668
 30
8.458037513525607
 11
-8.325626414985125
 21
-9.15852339893668
 31
8.478037513525607
  0
LINE
  5
29F
330
1F
100
AcDbEntity
  8
MARBLE
100
AcDbLine
 10
-16.06613456121408
 20
-9.17852339893668
 30
8.458037513525607
 11
-8.325626427000246
 21
-9.17852339893668
 31
8.458037513525607
  0
LINE
  5
2A0
330
1F
100
AcDbEntity
  8
MARBLE
100
AcDbLine
 10
-8.325626414985127
 20
-9.15852339893668
 30
7.728037513525607
 11
-8.305626426996753
 21
-9.158523398936683
 31
7.748037513525608
  0
LINE
  5
2A1
330
1F
100
AcDbEntity
  8
MARBLE
100
AcDbLine
 10
-8.325626426996756
 20
15.81902874965646
 30
7.748037513525607
 11
-8.305626426996753
 21
15.79902874965646
 31
7.748037513525606
  0
LINE
  5
2A2
330
1F
100
AcDbEntity
  8
MARBLE
100
AcDbLine
 10
-8.325626426996752
 20
15.81902874965646
 30
8.458037513525605
 11
-8.305626426996753
 21
15.79902874965646
 31
8.458037513525607
  0
LINE
  5
2A3
330
1F
100
AcDbEntity
  8
MARBLE
100
AcDbLine
 10
-8.305626426996753
 20
15.79902874965646
 30
8.458037513525607
 11
-8.325626426996752
 21
15.79902874965646
 31
8.478037513525607
  0
LINE
  5
2A4
330
1F
100
AcDbEntity
  8
MARBLE
100
AcDbLine
 10
-8.325626414985125
 20
-9.15852339893668
 30
8.478037513525607
 11
-8.305626426996755
 21
-9.15852339893668
 31
8.458037513525605
  0
LINE
  5
2A5
330
1F
100
AcDbEntity
  8
MARBLE
100
AcDbLine
 10
-8.325626426996763
 20
15.81902874965646
 30
8.103037513525607
 11
-16.06613456121408
 21
15.81902874965646
 31
8.103037513525607
  0
LINE
  5
2A6
330
1F
100
AcDbEntity
  8
MARBLE
100
AcDbLine
 10
-12.18588049410543
 20
15.81902874965646
 30
7.748037513525606
 11
-12.18588049410543
 21
15.81902874965646
 31
8.458037513525607
  0
LINE
  5
2A7
330
1F
100
AcDbEntity
  8
MARBLE
100
AcDbLine
 10
-8.305626426996753
 20
-9.158523398936456
 30
8.103037513525607
 11
-8.305626426996753
 21
15.79902874965646
 31
8.103037513525607
  0
LINE
  5
2A8
330
1F
100
AcDbEntity
  8
MARBLE
100
AcDbLine
 10
-8.305626426996753
 20
3.320252675359892
 30
7.748037513525607
 11
-8.305626426996753
 21
3.320252675359892
 31
8.458037513525607
  0
ARC
  5
2A9
330
1F
100
AcDbEntity
  8
MARBLE
100
AcDbCircle
 10
-16.0661345612141
 20
3.320252675359892
 30
8.103037513525607
 40
12.49877607429657
100
AcDbArc
 50
89.99999999999994
 51
270.0000000000001
  0
LINE
  5
2AA
330
1F
100
AcDbEntity
  8
MARBLE
100
AcDbLine
 10
-28.56491063551067
 20
3.320252675359892
 30
7.748037513525607
 11
-28.56491063551067
 21
3.320252675359892
 31
8.458037513525607
  0
LINE
  5
2AB
330
1F
100
AcDbEntity
  8
MARBLE
100
AcDbLine
 10
-16.06613456121408
 20
-9.17852339893668
 30
8.103037513525607
 11
-8.325626426996745
 21
-9.17852339893668
 31
8.103037513525607
  0
LINE
  5
2AC
330
1F
100
AcDbEntity
  8
MARBLE
100
AcDbLine
 10
-11.31793271962646
 20
-9.17852339893668
 30
7.748037513525606
 11
-11.31793271962646
 21
-9.17852339893668
 31
8.458037513525607
  0
LINE
  5
2AD
330
1F
100
AcDbEntity
  8
MARBLE
100
AcDbLine
 10
-28.54493240768766
 20
3.320252675359896
 30
7.728037513525607
 11
-8.325626415044452
 21
3.320252675359896
 31
7.728037513525607
  0
LINE
  5
2AE
330
1F
100
AcDbEntity
  8
MARBLE
100
AcDbLine
 10
-18.43526853125371
 20
-8.931582062481572
 30
7.728037513525607
 11
-18.43526853125371
 21
15.57208616082472
 31
7.728037513525607
  0
LINE
  5
2AF
330
1F
100
AcDbEntity
  8
MARBLE
100
AcDbLine
 10
-28.54493240768765
 20
3.320252675359896
 30
8.478037513525607
 11
-8.32562642099617
 21
3.320252675359896
 31
8.478037513525607
  0
LINE
  5
2B0
330
1F
100
AcDbEntity
  8
MARBLE
100
AcDbLine
 10
-18.43526853125371
 20
-8.931582062481572
 30
8.478037513525607
 11
-18.43526853125371
 21
15.57208616082473
 31
8.478037513525607
  0
LINE
  5
2B1
330
1F
100
AcDbEntity
  8
MARBLE
100
AcDbLine
 10
-8.315626426996754
 20
-9.15852339893668
 30
7.738037513525608
 11
-8.315626426996754
 21
15.79902874965646
 31
7.738037513525607
  0
LINE
  5
2B2
330
1F
100
AcDbEntity
  8
MARBLE
100
AcDbLine
 10
-8.305626426996753
 20
3.320252675359981
 30
7.748037513525608
 11
-8.325626426996754
 21
3.32025267535998
 31
7.728037513525607
  0
LINE
  5
2B3
330
1F
100
AcDbEntity
  8
MARBLE
100
AcDbLine
 10
-8.315626426996753
 20
15.80902874965646
 30
8.458037513525603
 11
-8.31562642699675
 21
15.80902874965646
 31
7.748037513525606
  0
LINE
  5
2B4
330
1F
100
AcDbEntity
  8
MARBLE
100
AcDbLine
 10
-8.305626426996753
 20
15.79902874965646
 30
8.10103751352561
 11
-8.325626426996752
 21
15.81902874965646
 31
8.101037513525608
  0
LINE
  5
2B5
330
1F
100
AcDbEntity
  8
MARBLE
100
AcDbLine
 10
-8.315626426996754
 20
-9.158523398936682
 30
8.468037513525607
 11
-8.315626426996754
 21
15.79902874965646
 31
8.468037513525609
  0
LINE
  5
2B6
330
1F
100
AcDbEntity
  8
MARBLE
100
AcDbLine
 10
-8.305626426996755
 20
3.320252675359979
 30
8.458037513525607
 11
-8.325626426996752
 21
3.320252675359979
 31
8.478037513525607
  0
LINE
  5
2B7
330
1F
100
AcDbEntity
  8
MARBLE
100
AcDbLine
 10
-8.315626426996754
 20
-9.16852339893668
 30
7.748037513525607
 11
-8.315626426996753
 21
-9.168523398936678
 31
8.458037513525607
  0
LINE
  5
2B8
330
1F
100
AcDbEntity
  8
MARBLE
100
AcDbLine
 10
-8.305626426996753
 20
-9.15852339893668
 30
8.105037513525609
 11
-8.32562642699675
 21
-9.17852339893668
 31
8.105037513525605
  0
LINE
  5
2B9
330
1F
100
AcDbEntity
  8
MARBLE
100
AcDbLine
 10
-8.325626426996756
 20
15.80902874965646
 30
7.738037513525608
 11
-16.06613456121408
 21
15.80902874965646
 31
7.738037513525608
  0
LINE
  5
2BA
330
1F
100
AcDbEntity
  8
MARBLE
100
AcDbLine
 10
-11.9858804941054
 20
15.81902874965646
 30
7.748037513525608
 11
-11.9858804941054
 21
15.79902874965646
 31
7.728037513525608
  0
LINE
  5
2BB
330
1F
100
AcDbEntity
  8
MARBLE
100
AcDbLine
 10
-8.325626426996754
 20
15.80902874965647
 30
8.468037513525607
 11
-16.06613456121408
 21
15.80902874965647
 31
8.468037513525605
  0
LINE
  5
2BC
330
1F
100
AcDbEntity
  8
MARBLE
100
AcDbLine
 10
-11.9858804941054
 20
15.81902874965646
 30
8.458037513525607
 11
-11.9858804941054
 21
15.79902874965647
 31
8.478037513525607
  0
SPLINE
  5
2BD
330
1F
100
AcDbEntity
  8
MARBLE
100
AcDbSpline
210
0.0
220
0.0
230
1.0
 70
     8
 71
     3
 72
    23
 73
    19
 74
     0
 42
0.000000001
 43
0.0000000001
 40
0.0
 40
0.0
 40
0.0
 40
0.0
 40
2.351979964181377
 40
4.703959928362754
 40
7.252352916409844
 40
9.800745904456935
 40
12.34913889420068
 40
14.89753188394442
 40
17.2495118481267
 40
19.60149181230897
 40
21.95347177649035
 40
24.30545174067173
 40
26.85384473041546
 40
29.40223772015919
 40
31.95063070820629
 40
34.4990236962534
 40
36.85100366043477
 40
39.20298362461615
 40
39.20298362461615
 40
39.20298362461615
 40
39.20298362461615
 10
-16.06613456121409
 20
15.80902874965647
 30
7.738037513525607
 10
-16.85075586838337
 20
15.80907461970278
 30
7.738037513525613
 10
-18.41999009744621
 20
15.66069695011337
 30
7.738037513525596
 10
-20.75370690324028
 20
14.98281642404561
 30
7.738037513525611
 10
-22.97043206772591
 20
13.83141525909073
 30
7.738037513525605
 10
-24.95864721471953
 20
12.21276491945856
 30
7.738037513525613
 10
-26.57729588414048
 20
10.22455343680372
 30
7.738037513525603
 10
-27.72869346190036
 20
8.007826354831398
 30
7.738037513525613
 10
-28.40659340634878
 20
5.674112557280367
 30
7.738037513525601
 10
-28.62910123333451
 20
3.320256156845865
 30
7.738037513525624
 10
-28.40659621114002
 20
0.9663914249520753
 30
7.738037513525596
 10
-27.72868917019026
 20
-1.367316207120365
 30
7.738037513525613
 10
-26.57730227649358
 20
-3.584046837022126
 30
7.738037513525589
 10
-24.95864393278733
 20
-5.572258850754799
 30
7.738037513525619
 10
-22.97043690441614
 20
-7.190909912074898
 30
7.738037513525597
 10
-20.7537080530526
 20
-8.34231480625019
 30
7.738037513525616
 10
-18.41999099347848
 20
-9.020187597496928
 30
7.738037513525606
 10
-16.85076112519143
 20
-9.168580121107063
 30
7.738037513525612
 10
-16.06613456121408
 20
-9.168523398936689
 30
7.738037513525607
  0
LINE
  5
2BE
330
1F
100
AcDbEntity
  8
MARBLE
100
AcDbLine
 10
-18.40797411896333
 20
15.59769399621373
 30
7.748037513525603
 11
-18.40422680872325
 21
15.5780481665415
 31
7.728037513525603
  0
LINE
  5
2BF
330
1F
100
AcDbEntity
  8
MARBLE
100
AcDbLine
 10
-20.66687619145425
 20
14.94149370557009
 30
7.74803751352561
 11
-20.6595142841741
 21
14.92289789888715
 31
7.728037513525605
  0
LINE
  5
2C0
330
1F
100
AcDbEntity
  8
MARBLE
100
AcDbLine
 10
-22.92809520696029
 20
13.76695870532227
 30
7.748037513525608
 11
-22.91711499295521
 21
13.75024234094918
 31
7.728037513525608
  0
LINE
  5
2C1
330
1F
100
AcDbEntity
  8
MARBLE
100
AcDbLine
 10
-24.90412388470367
 20
12.15824248060831
 30
7.74803751352561
 11
-24.88998171794397
 21
12.14410031156845
 31
7.728037513525608
  0
LINE
  5
2C2
330
1F
100
AcDbEntity
  8
MARBLE
100
AcDbLine
 10
-26.51283899424672
 20
10.18221563869527
 30
7.748037513525608
 11
-26.49612263144321
 21
10.17123542204841
 31
7.728037513525605
  0
LINE
  5
2C3
330
1F
100
AcDbEntity
  8
MARBLE
100
AcDbLine
 10
-27.68737483517971
 20
7.920996484458102
 30
7.748037513525606
 11
-27.66877902961072
 21
7.913634573791107
 31
7.72803751352561
  0
LINE
  5
2C4
330
1F
100
AcDbEntity
  8
MARBLE
100
AcDbLine
 10
-28.34357752541709
 20
5.662095250575121
 30
7.748037513525609
 11
-28.32393169323452
 21
5.658347935398699
 31
7.728037513525607
  0
LINE
  5
2C5
330
1F
100
AcDbEntity
  8
MARBLE
100
AcDbLine
 10
-28.56493244264013
 20
3.320254769865475
 30
7.748037513525616
 11
-28.54493240763549
 21
3.320254766672464
 31
7.728037513525615
  0
LINE
  5
2C6
330
1F
100
AcDbEntity
  8
MARBLE
100
AcDbLine
 10
-28.3435787131052
 20
0.9784111209561792
 30
7.748037513525602
 11
-28.32393287876208
 21
0.9821584341882179
 31
7.728037513525605
  0
LINE
  5
2C7
330
1F
100
AcDbEntity
  8
MARBLE
100
AcDbLine
 10
-27.68737345812612
 20
-1.280487998754674
 30
7.748037513525603
 11
-27.66877765514405
 21
-1.273126092756888
 31
7.728037513525607
  0
LINE
  5
2C8
330
1F
100
AcDbEntity
  8
MARBLE
100
AcDbLine
 10
-26.51284194923764
 20
-3.541708518844516
 30
7.748037513525601
 11
-26.49612558113471
 21
-3.530728305534114
 31
7.728037513525597
  0
LINE
  5
2C9
330
1F
100
AcDbEntity
  8
MARBLE
100
AcDbLine
 10
-24.90412356771227
 20
-5.517736443397522
 30
7.748037513525608
 11
-24.88998140204023
 21
-5.503594274908396
 31
7.72803751352561
  0
LINE
  5
2CA
330
1F
100
AcDbEntity
  8
MARBLE
100
AcDbLine
 10
-22.92809806242402
 20
-7.126453876122892
 30
7.748037513525605
 11
-22.91711784329931
 21
-7.109737511405733
 31
7.728037513525605
  0
LINE
  5
2CB
330
1F
100
AcDbEntity
  8
MARBLE
100
AcDbLine
 10
-20.66687785463806
 20
-8.30099011087781
 30
7.748037513525611
 11
-20.65951594535241
 21
-8.282394300802943
 31
7.72803751352561
  0
LINE
  5
2CC
330
1F
100
AcDbEntity
  8
MARBLE
100
AcDbLine
 10
-18.40797614820732
 20
-8.957189611858356
 30
7.74803751352561
 11
-18.40422883423403
 21
-8.937543781121512
 31
7.728037513525609
  0
SPLINE
  5
2CD
330
1F
100
AcDbEntity
  8
MARBLE
100
AcDbSpline
210
0.0
220
0.0
230
1.0
 70
     8
 71
     3
 72
    23
 73
    19
 74
     0
 42
0.000000001
 43
0.0000000001
 40
0.0
 40
0.0
 40
0.0
 40
0.0
 40
2.351979964181374
 40
4.703959928362749
 40
7.252352916409848
 40
9.800745904456948
 40
12.34913889420069
 40
14.89753188394443
 40
17.2495118481267
 40
19.60149181230898
 40
21.95347177649036
 40
24.30545174067174
 40
26.85384473041547
 40
29.40223772015921
 40
31.9506307082063
 40
34.4990236962534
 40
36.85100366043477
 40
39.20298362461615
 40
39.20298362461615
 40
39.20298362461615
 40
39.20298362461615
 10
-16.06613456121409
 20
15.80902874965647
 30
8.468037513525607
 10
-16.85075586838335
 20
15.80907461970276
 30
8.468037513525607
 10
-18.41999009744622
 20
15.66069695011339
 30
8.468037513525605
 10
-20.75370690324029
 20
14.98281642404561
 30
8.468037513525609
 10
-22.9704320677259
 20
13.83141525909072
 30
8.468037513525601
 10
-24.95864721471952
 20
12.21276491945856
 30
8.468037513525609
 10
-26.57729588414049
 20
10.22455343680371
 30
8.468037513525603
 10
-27.72869346190035
 20
8.007826354831398
 30
8.468037513525612
 10
-28.40659340634883
 20
5.674112557280369
 30
8.468037513525603
 10
-28.62910123333445
 20
3.320256156845866
 30
8.468037513525614
 10
-28.40659621114008
 20
0.9663914249520729
 30
8.468037513525612
 10
-27.72868917019024
 20
-1.367316207120374
 30
8.468037513525612
 10
-26.57730227649363
 20
-3.584046837022123
 30
8.468037513525594
 10
-24.95864393278728
 20
-5.572258850754787
 30
8.468037513525605
 10
-22.97043690441616
 20
-7.190909912074915
 30
8.468037513525612
 10
-20.75370805305257
 20
-8.34231480625018
 30
8.468037513525605
 10
-18.41999099347849
 20
-9.020187597496943
 30
8.46803751352562
 10
-16.85076112519141
 20
-9.168580121107057
 30
8.468037513525605
 10
-16.06613456121408
 20
-9.16852339893669
 30
8.468037513525607
  0
LINE
  5
2CE
330
1F
100
AcDbEntity
  8
MARBLE
100
AcDbLine
 10
-18.40797411896333
 20
15.59769399621373
 30
8.458037513525607
 11
-18.40422680872324
 21
15.57804816654151
 31
8.478037513525605
  0
LINE
  5
2CF
330
1F
100
AcDbEntity
  8
MARBLE
100
AcDbLine
 10
-20.66687619145426
 20
14.94149370557009
 30
8.458037513525607
 11
-20.6595142841741
 21
14.92289789888716
 31
8.478037513525608
  0
LINE
  5
2D0
330
1F
100
AcDbEntity
  8
MARBLE
100
AcDbLine
 10
-22.92809520696028
 20
13.76695870532225
 30
8.458037513525603
 11
-22.91711499295521
 21
13.75024234094917
 31
8.478037513525605
  0
LINE
  5
2D1
330
1F
100
AcDbEntity
  8
MARBLE
100
AcDbLine
 10
-24.90412388470367
 20
12.1582424806083
 30
8.458037513525607
 11
-24.88998171794397
 21
12.14410031156844
 31
8.478037513525607
  0
LINE
  5
2D2
330
1F
100
AcDbEntity
  8
MARBLE
100
AcDbLine
 10
-26.51283899424672
 20
10.18221563869526
 30
8.458037513525607
 11
-26.49612263144322
 21
10.1712354220484
 31
8.478037513525603
  0
LINE
  5
2D3
330
1F
100
AcDbEntity
  8
MARBLE
100
AcDbLine
 10
-27.68737483517972
 20
7.920996484458104
 30
8.458037513525612
 11
-27.66877902961072
 21
7.913634573791112
 31
8.478037513525607
  0
LINE
  5
2D4
330
1F
100
AcDbEntity
  8
MARBLE
100
AcDbLine
 10
-28.3435775254171
 20
5.662095250575121
 30
8.458037513525605
 11
-28.32393169323453
 21
5.658347935398702
 31
8.478037513525608
  0
LINE
  5
2D5
330
1F
100
AcDbEntity
  8
MARBLE
100
AcDbLine
 10
-28.56493244264011
 20
3.320254769865473
 30
8.45803751352561
 11
-28.54493240763545
 21
3.320254766672461
 31
8.47803751352561
  0
LINE
  5
2D6
330
1F
100
AcDbEntity
  8
MARBLE
100
AcDbLine
 10
-28.34357871310522
 20
0.9784111209561767
 30
8.45803751352561
 11
-28.32393287876211
 21
0.9821584341882155
 31
8.478037513525614
  0
LINE
  5
2D7
330
1F
100
AcDbEntity
  8
MARBLE
100
AcDbLine
 10
-27.68737345812612
 20
-1.280487998754676
 30
8.458037513525612
 11
-27.66877765514407
 21
-1.273126092756889
 31
8.478037513525608
  0
LINE
  5
2D8
330
1F
100
AcDbEntity
  8
MARBLE
100
AcDbLine
 10
-26.51284194923765
 20
-3.541708518844514
 30
8.4580375135256
 11
-26.49612558113471
 21
-3.530728305534112
 31
8.478037513525598
  0
LINE
  5
2D9
330
1F
100
AcDbEntity
  8
MARBLE
100
AcDbLine
 10
-24.90412356771224
 20
-5.517736443397524
 30
8.458037513525607
 11
-24.88998140204021
 21
-5.503594274908395
 31
8.478037513525603
  0
LINE
  5
2DA
330
1F
100
AcDbEntity
  8
MARBLE
100
AcDbLine
 10
-22.92809806242403
 20
-7.1264538761229
 30
8.458037513525609
 11
-22.91711784329931
 21
-7.109737511405742
 31
8.478037513525614
  0
LINE
  5
2DB
330
1F
100
AcDbEntity
  8
MARBLE
100
AcDbLine
 10
-20.66687785463805
 20
-8.300990110877809
 30
8.45803751352561
 11
-20.6595159453524
 21
-8.28239430080294
 31
8.478037513525608
  0
LINE
  5
2DC
330
1F
100
AcDbEntity
  8
MARBLE
100
AcDbLine
 10
-18.40797614820731
 20
-8.957189611858363
 30
8.45803751352561
 11
-18.40422883423403
 21
-8.937543781121514
 31
8.478037513525615
  0
LINE
  5
2DD
330
1F
100
AcDbEntity
  8
MARBLE
100
AcDbLine
 10
-16.06613456121269
 20
-9.168523398936681
 30
7.738037513525606
 11
-8.325626426996758
 21
-9.168523398936681
 31
7.738037513525608
  0
LINE
  5
2DE
330
1F
100
AcDbEntity
  8
MARBLE
100
AcDbLine
 10
-11.98406207378363
 20
-9.17852339893668
 30
7.748037513525606
 11
-11.98406207375286
 21
-9.15852339893668
 31
7.728037513525607
  0
LINE
  5
2DF
330
1F
100
AcDbEntity
  8
MARBLE
100
AcDbLine
 10
-16.06613456121269
 20
-9.16852339893668
 30
8.468037513525607
 11
-8.325626426996758
 21
-9.168523398936681
 31
8.468037513525607
  0
LINE
  5
2E0
330
1F
100
AcDbEntity
  8
MARBLE
100
AcDbLine
 10
-11.98406207378363
 20
-9.17852339893668
 30
8.458037513525607
 11
-11.98406207375286
 21
-9.15852339893668
 31
8.478037513525607
  0
LINE
  5
2E1
330
1F
100
AcDbEntity
  8
MARBLE
100
AcDbLine
 10
-8.325626426996756
 20
-9.168523398936681
 30
7.738037513525608
 11
-8.315626427003735
 21
-9.168523398936681
 31
7.748037513525608
  0
LINE
  5
2E2
330
1F
100
AcDbEntity
  8
MARBLE
100
AcDbLine
 10
-8.315626426989775
 20
-9.158523398936682
 30
7.738037513525608
 11
-8.325626427010718
 21
-9.178523398936681
 31
7.748037513525608
  0
LINE
  5
2E3
330
1F
100
AcDbEntity
  8
MARBLE
100
AcDbLine
 10
-8.315626426996754
 20
15.80902874965646
 30
7.748037513525606
 11
-8.325626426996754
 21
15.80902874965646
 31
7.738037513525606
  0
LINE
  5
2E4
330
1F
100
AcDbEntity
  8
MARBLE
100
AcDbLine
 10
-8.315626426996754
 20
15.79902874965646
 30
7.738037513525607
 11
-8.325626426996754
 21
15.81902874965646
 31
7.748037513525606
  0
LINE
  5
2E5
330
1F
100
AcDbEntity
  8
MARBLE
100
AcDbLine
 10
-8.325626426996752
 20
15.80902874965647
 30
8.468037513525605
 11
-8.315626426996754
 21
15.79902874965646
 31
8.468037513525605
  0
LINE
  5
2E6
330
1F
100
AcDbEntity
  8
MARBLE
100
AcDbLine
 10
-8.315626426996754
 20
15.80902874965646
 30
8.458037513525605
 11
-8.325626426996752
 21
15.79902874965646
 31
8.478037513525607
  0
LINE
  5
2E7
330
1F
100
AcDbEntity
  8
MARBLE
100
AcDbLine
 10
-8.325626426996754
 20
-9.16852339893668
 30
8.468037513525607
 11
-8.315626427003735
 21
-9.16852339893668
 31
8.458037513525607
  0
LINE
  5
2E8
330
1F
100
AcDbEntity
  8
MARBLE
100
AcDbLine
 10
-8.315626426989773
 20
-9.158523398936678
 30
8.468037513525605
 11
-8.325626427010716
 21
-9.178523398936681
 31
8.458037513525607
  0
ENDSEC
  0
SECTION
  2
OBJECTS
  0
DICTIONARY
  5
C
330
0
100
AcDbDictionary
281
     1
  3
ACAD_DETAILVIEWSTYLE
350
324
  3
ACAD_GROUP
350
D
  3
ACAD_LAYOUT
350
1A
  3
ACAD_MATERIAL
350
43
  3
ACAD_MLEADERSTYLE
350
323
  3
ACAD_MLINESTYLE
350
17
  3
ACAD_PLOTSETTINGS
350
19
  3
ACAD_PLOTSTYLENAME
350
E
  3
ACAD_SCALELIST
350
47
  3
ACAD_SECTIONVIEWSTYLE
350
325
  3
ACAD_TABLESTYLE
350
322
  3
ACAD_VISUALSTYLE
350
2A
  3
AcDbVariableDictionary
350
2E9
  0
DICTIONARY
  5
324
102
{ACAD_REACTORS
330
C
102
}
330
C
100
AcDbDictionary
281
     1
  0
DICTIONARY
  5
D
102
{ACAD_REACTORS
330
C
102
}
330
C
100
AcDbDictionary
281
     1
  0
DICTIONARY
  5
1A
102
{ACAD_REACTORS
330
C
102
}
330
C
100
AcDbDictionary
281
     1
  3
Layout1
350
1E
  3
Layout2
350
26
  3
Model
350
22
  0
DICTIONARY
  5
43
102
{ACAD_REACTORS
330
C
102
}
330
C
100
AcDbDictionary
281
     1
  3
ByBlock
350
45
  3
ByLayer
350
44
  3
Global
350
46
  0
DICTIONARY
  5
323
102
{ACAD_REACTORS
330
C
102
}
330
C
100
AcDbDictionary
281
     1
  0
DICTIONARY
  5
17
102
{ACAD_REACTORS
330
C
102
}
330
C
100
AcDbDictionary
281
     1
  3
Standard
350
18
  0
DICTIONARY
  5
19
102
{ACAD_REACTORS
330
C
102
}
330
C
100
AcDbDictionary
281
     1
  0
ACDBDICTIONARYWDFLT
  5
E
102
{ACAD_REACTORS
330
C
102
}
330
C
100
AcDbDictionary
281
     1
  3
Normal
350
F
100
AcDbDictionaryWithDefault
340
F
  0
DICTIONARY
  5
47
102
{ACAD_REACTORS
330
C
102
}
330
C
100
AcDbDictionary
281
     1
  3
A0
350
48
  3
A1
350
49
  3
A2
350
4A
  3
A3
350
4B
  3
A4
350
4C
  3
A5
350
4D
  3
A6
350
4E
  3
A7
350
4F
  3
A8
350
50
  3
A9
350
51
  3
B0
350
52
  3
B1
350
53
  3
B2
350
54
  3
B3
350
55
  3
B4
350
56
  3
B5
350
57
  3
B6
350
58
  3
B7
350
59
  3
B8
350
5A
  3
B9
350
5B
  3
C0
350
5C
  3
C1
350
5D
  3
C2
350
5E
  3
C3
350
5F
  3
C4
350
60
  3
C5
350
61
  3
C6
350
62
  3
C7
350
63
  3
C8
350
64
  3
C9
350
65
  3
D0
350
66
  3
D1
350
67
  3
D2
350
68
  0
DICTIONARY
  5
325
102
{ACAD_REACTORS
330
C
102
}
330
C
100
AcDbDictionary
281
     1
  0
DICTIONARY
  5
322
102
{ACAD_REACTORS
330
C
102
}
330
C
100
AcDbDictionary
281
     1
  0
DICTIONARY
  5
2A
102
{ACAD_REACTORS
330
C
102
}
330
C
100
AcDbDictionary
281
     1
  3
2dWireframe
350
2F
  3
Basic
350
32
  3
Brighten
350
36
  3
ColorChange
350
3A
  3
Conceptual
350
34
  3
Dim
350
35
  3
EdgeColorOff
350
3D
  3
Facepattern
350
39
  3
Flat
350
2B
  3
FlatWithEdges
350
2C
  3
Gouraud
350
2D
  3
GouraudWithEdges
350
2E
  3
Hidden
350
31
  3
JitterOff
350
3B
  3
Linepattern
350
38
  3
OverhangOff
350
3C
  3
Realistic
350
33
  3
Shaded
350
42
  3
Shaded with edges
350
41
  3
Shades of Gray
350
3E
  3
Sketchy
350
3F
  3
Thicken
350
37
  3
Wireframe
350
30
  3
X-Ray
350
40
  0
DICTIONARY
  5
2E9
102
{ACAD_REACTORS
330
C
102
}
330
C
100
AcDbDictionary
281
     1
  3
CANNOSCALE
350
2EA
  3
MSLTSCALE
350
2EB
  0
LAYOUT
  5
1E
102
{ACAD_REACTORS
330
1A
102
}
330
1A
100
AcDbPlotSettings
  1

  2
none_device
  4

  6

 40
0.0
 41
0.0
 42
0.0
 43
0.0
 44
0.0
 45
0.0
 46
0.0
 47
0.0
 48
0.0
 49
0.0
140
0.0
141
0.0
142
1.0
143
1.0
 70
   688
 72
     0
 73
     0
 74
     5
  7

 75
    16
 76
     0
 77
     2
 78
   300
147
1.0
148
0.0
149
0.0
100
AcDbLayout
  1
Layout1
 70
     1
 71
     1
 10
0.0
 20
0.0
 11
12.0
 21
9.0
 12
0.0
 22
0.0
 32
0.0
 14
1.000000000000000E+20
 24
1.000000000000000E+20
 34
1.000000000000000E+20
 15
-1.000000000000000E+20
 25
-1.000000000000000E+20
 35
-1.000000000000000E+20
146
0.0
 13
0.0
 23
0.0
 33
0.0
 16
1.0
 26
0.0
 36
0.0
 17
0.0
 27
1.0
 37
0.0
 76
     0
330
1B
  0
LAYOUT
  5
26
102
{ACAD_REACTORS
330
1A
102
}
330
1A
100
AcDbPlotSettings
  1

  2
none_device
  4

  6

 40
0.0
 41
0.0
 42
0.0
 43
0.0
 44
0.0
 45
0.0
 46
0.0
 47
0.0
 48
0.0
 49
0.0
140
0.0
141
0.0
142
1.0
143
1.0
 70
   688
 72
     0
 73
     0
 74
     5
  7

 75
    16
 76
     0
 77
     2
 78
   300
147
1.0
148
0.0
149
0.0
100
AcDbLayout
  1
Layout2
 70
     1
 71
     2
 10
0.0
 20
0.0
 11
0.0
 21
0.0
 12
0.0
 22
0.0
 32
0.0
 14
0.0
 24
0.0
 34
0.0
 15
0.0
 25
0.0
 35
0.0
146
0.0
 13
0.0
 23
0.0
 33
0.0
 16
1.0
 26
0.0
 36
0.0
 17
0.0
 27
1.0
 37
0.0
 76
     0
330
23
  0
LAYOUT
  5
22
102
{ACAD_REACTORS
330
1A
102
}
330
1A
100
AcDbPlotSettings
  1

  2
none_device
  4
Letter_(8.50_x_11.00_Inches)
  6

 40
6.35
 41
6.35
 42
6.35000508
 43
6.35000508
 44
215.9
 45
279.4
 46
0.0
 47
0.0
 48
0.0
 49
0.0
140
0.0
141
0.0
142
1.0
143
1.0
 70
  1712
 72
     0
 73
     0
 74
     0
  7

 75
     0
 76
     0
 77
     2
 78
   300
147
1.0
148
0.0
149
0.0
100
AcDbLayout
  1
Model
 70
     1
 71
     0
 10
0.0
 20
0.0
 11
12.0
 21
9.0
 12
0.0
 22
0.0
 32
0.0
 14
-97.6442667310144
 24
-16.06861971095689
 34
-0.3125
 15
39.4375
 25
15.82025267535988
 35
14.87500000000005
146
0.0
 13
0.0
 23
0.0
 33
0.0
 16
1.0
 26
0.0
 36
0.0
 17
0.0
 27
1.0
 37
0.0
 76
     0
330
1F
331
29
  0
MATERIAL
  5
45
102
{ACAD_REACTORS
330
43
102
}
102
{ACAD_XDICTIONARY
360
31E
102
}
330
43
100
AcDbMaterial
  1
ByBlock
  0
MATERIAL
  5
44
102
{ACAD_REACTORS
330
43
102
}
102
{ACAD_XDICTIONARY
360
31C
102
}
330
43
100
AcDbMaterial
  1
ByLayer
  0
MATERIAL
  5
46
102
{ACAD_REACTORS
330
43
102
}
102
{ACAD_XDICTIONARY
360
320
102
}
330
43
100
AcDbMaterial
  1
Global
  0
MLINESTYLE
  5
18
102
{ACAD_REACTORS
330
17
102
}
330
17
100
AcDbMlineStyle
  2
Standard
 70
     0
  3

 62
   256
 51
90.0
 52
90.0
 71
     2
 49
0.5
 62
   256
  6
BYLAYER
 49
-0.5
 62
   256
  6
BYLAYER
  0
ACDBPLACEHOLDER
  5
F
102
{ACAD_REACTORS
330
E
102
}
330
E
  0
SCALE
  5
48
102
{ACAD_REACTORS
330
47
102
}
330
47
100
AcDbScale
 70
     0
300
1:1
140
1.0
141
1.0
290
     1
  0
SCALE
  5
49
102
{ACAD_REACTORS
330
47
102
}
330
47
100
AcDbScale
 70
     0
300
1:2
140
1.0
141
2.0
290
     0
  0
SCALE
  5
4A
102
{ACAD_REACTORS
330
47
102
}
330
47
100
AcDbScale
 70
     0
300
1:4
140
1.0
141
4.0
290
     0
  0
SCALE
  5
4B
102
{ACAD_REACTORS
330
47
102
}
330
47
100
AcDbScale
 70
     0
300
1:5
140
1.0
141
5.0
290
     0
  0
SCALE
  5
4C
102
{ACAD_REACTORS
330
47
102
}
330
47
100
AcDbScale
 70
     0
300
1:8
140
1.0
141
8.0
290
     0
  0
SCALE
  5
4D
102
{ACAD_REACTORS
330
47
102
}
330
47
100
AcDbScale
 70
     0
300
1:10
140
1.0
141
10.0
290
     0
  0
SCALE
  5
4E
102
{ACAD_REACTORS
330
47
102
}
330
47
100
AcDbScale
 70
     0
300
1:16
140
1.0
141
16.0
290
     0
  0
SCALE
  5
4F
102
{ACAD_REACTORS
330
47
102
}
330
47
100
AcDbScale
 70
     0
300
1:20
140
1.0
141
20.0
290
     0
  0
SCALE
  5
50
102
{ACAD_REACTORS
330
47
102
}
330
47
100
AcDbScale
 70
     0
300
1:30
140
1.0
141
30.0
290
     0
  0
SCALE
  5
51
102
{ACAD_REACTORS
330
47
102
}
330
47
100
AcDbScale
 70
     0
300
1:40
140
1.0
141
40.0
290
     0
  0
SCALE
  5
52
102
{ACAD_REACTORS
330
47
102
}
330
47
100
AcDbScale
 70
     0
300
1:50
140
1.0
141
50.0
290
     0
  0
SCALE
  5
53
102
{ACAD_REACTORS
330
47
102
}
330
47
100
AcDbScale
 70
     0
300
1:100
140
1.0
141
100.0
290
     0
  0
SCALE
  5
54
102
{ACAD_REACTORS
330
47
102
}
330
47
100
AcDbScale
 70
     0
300
2:1
140
2.0
141
1.0
290
     0
  0
SCALE
  5
55
102
{ACAD_REACTORS
330
47
102
}
330
47
100
AcDbScale
 70
     0
300
4:1
140
4.0
141
1.0
290
     0
  0
SCALE
  5
56
102
{ACAD_REACTORS
330
47
102
}
330
47
100
AcDbScale
 70
     0
300
8:1
140
8.0
141
1.0
290
     0
  0
SCALE
  5
57
102
{ACAD_REACTORS
330
47
102
}
330
47
100
AcDbScale
 70
     0
300
10:1
140
10.0
141
1.0
290
     0
  0
SCALE
  5
58
102
{ACAD_REACTORS
330
47
102
}
330
47
100
AcDbScale
 70
     0
300
100:1
140
100.0
141
1.0
290
     0
  0
SCALE
  5
59
102
{ACAD_REACTORS
330
47
102
}
330
47
100
AcDbScale
 70
     0
300
1/128" = 1'-0"
140
0.0078125
141
12.0
290
     0
  0
SCALE
  5
5A
102
{ACAD_REACTORS
330
47
102
}
330
47
100
AcDbScale
 70
     0
300
1/64" = 1'-0"
140
0.015625
141
12.0
290
     0
  0
SCALE
  5
5B
102
{ACAD_REACTORS
330
47
102
}
330
47
100
AcDbScale
 70
     0
300
1/32" = 1'-0"
140
0.03125
141
12.0
290
     0
  0
SCALE
  5
5C
102
{ACAD_REACTORS
330
47
102
}
330
47
100
AcDbScale
 70
     0
300
1/16" = 1'-0"
140
0.0625
141
12.0
290
     0
  0
SCALE
  5
5D
102
{ACAD_REACTORS
330
47
102
}
330
47
100
AcDbScale
 70
     0
300
3/32" = 1'-0"
140
0.09375
141
12.0
290
     0
  0
SCALE
  5
5E
102
{ACAD_REACTORS
330
47
102
}
330
47
100
AcDbScale
 70
     0
300
1/8" = 1'-0"
140
0.125
141
12.0
290
     0
  0
SCALE
  5
5F
102
{ACAD_REACTORS
330
47
102
}
330
47
100
AcDbScale
 70
     0
300
3/16" = 1'-0"
140
0.1875
141
12.0
290
     0
  0
SCALE
  5
60
102
{ACAD_REACTORS
330
47
102
}
330
47
100
AcDbScale
 70
     0
300
1/4" = 1'-0"
140
0.25
141
12.0
290
     0
  0
SCALE
  5
61
102
{ACAD_REACTORS
330
47
102
}
330
47
100
AcDbScale
 70
     0
300
3/8" = 1'-0"
140
0.375
141
12.0
290
     0
  0
SCALE
  5
62
102
{ACAD_REACTORS
330
47
102
}
330
47
100
AcDbScale
 70
     0
300
1/2" = 1'-0"
140
0.5
141
12.0
290
     0
  0
SCALE
  5
63
102
{ACAD_REACTORS
330
47
102
}
330
47
100
AcDbScale
 70
     0
300
3/4" = 1'-0"
140
0.75
141
12.0
290
     0
  0
SCALE
  5
64
102
{ACAD_REACTORS
330
47
102
}
330
47
100
AcDbScale
 70
     0
300
1" = 1'-0"
140
1.0
141
12.0
290
     0
  0
SCALE
  5
65
102
{ACAD_REACTORS
330
47
102
}
330
47
100
AcDbScale
 70
     0
300
1-1/2" = 1'-0"
140
1.5
141
12.0
290
     0
  0
SCALE
  5
66
102
{ACAD_REACTORS
330
47
102
}
330
47
100
AcDbScale
 70
     0
300
3" = 1'-0"
140
3.0
141
12.0
290
     0
  0
SCALE
  5
67
102
{ACAD_REACTORS
330
47
102
}
330
47
100
AcDbScale
 70
     0
300
6" = 1'-0"
140
6.0
141
12.0
290
     0
  0
SCALE
  5
68
102
{ACAD_REACTORS
330
47
102
}
330
47
100
AcDbScale
 70
     0
300
1'-0" = 1'-0"
140
12.0
141
12.0
290
     0
  0
VISUALSTYLE
  5
2F
102
{ACAD_REACTORS
330
2A
102
}
102
{ACAD_XDICTIONARY
360
2F4
102
}
330
2A
100
AcDbVisualStyle
  2
2dWireframe
 70
     4
 71
     0
 72
     2
 73
     0
 90
        0
 40
0.6
 41
30.0
 62
     5
 63
     7
421
 16777215
 74
     1
 91
        4
 64
     7
 65
   257
 75
     1
175
     1
 42
1.0
 92
        0
 66
   257
 43
1.0
 76
     1
 77
     6
 78
     2
 67
     7
 79
     5
170
     0
171
     0
290
     0
174
     0
 93
        1
 44
0.0
173
     0
291
     0
 45
0.0
1001
ACAD
1000
AcDbSavedByObjectVersion
1070
     0
  0
VISUALSTYLE
  5
32
102
{ACAD_REACTORS
330
2A
102
}
102
{ACAD_XDICTIONARY
360
2FA
102
}
330
2A
100
AcDbVisualStyle
  2
Basic
 70
     7
 71
     1
 72
     0
 73
     1
 90
        0
 40
0.6
 41
30.0
 62
     5
 63
     7
421
 16777215
 74
     0
 91
        4
 64
     7
 65
   257
 75
     1
175
     1
 42
1.0
 92
        8
 66
     7
 43
1.0
 76
     1
 77
     6
 78
     2
 67
     7
 79
     5
170
     0
171
     0
290
     0
174
     0
 93
        1
 44
0.0
173
     0
291
     1
 45
0.0
1001
ACAD
1000
AcDbSavedByObjectVersion
1070
     0
  0
VISUALSTYLE
  5
36
102
{ACAD_REACTORS
330
2A
102
}
102
{ACAD_XDICTIONARY
360
302
102
}
330
2A
100
AcDbVisualStyle
  2
Brighten
 70
    12
 71
     2
 72
     2
 73
     0
 90
        0
 40
0.6
 41
30.0
 62
     5
 63
     7
421
 16777215
 74
     1
 91
        4
 64
     7
 65
   257
 75
     1
175
     1
 42
1.0
 92
        8
 66
     7
 43
1.0
 76
     1
 77
     6
 78
     2
 67
     7
 79
     5
170
     0
171
     0
290
     0
174
     0
 93
        1
 44
50.0
173
     0
291
     1
 45
0.0
1001
ACAD
1000
AcDbSavedByObjectVersion
1070
     0
  0
VISUALSTYLE
  5
3A
102
{ACAD_REACTORS
330
2A
102
}
102
{ACAD_XDICTIONARY
360
30A
102
}
330
2A
100
AcDbVisualStyle
  2
ColorChange
 70
    16
 71
     2
 72
     2
 73
     3
 90
        0
 40
0.6
 41
30.0
 62
     5
 63
     8
421
  8421504
 74
     1
 91
        4
 64
     7
 65
   257
 75
     1
175
     1
 42
1.0
 92
        8
 66
     8
424
  8421504
 43
1.0
 76
     1
 77
     6
 78
     2
 67
     7
 79
     5
170
     0
171
     0
290
     0
174
     0
 93
        1
 44
0.0
173
     0
291
     1
 45
0.0
1001
ACAD
1000
AcDbSavedByObjectVersion
1070
     0
  0
VISUALSTYLE
  5
34
102
{ACAD_REACTORS
330
2A
102
}
102
{ACAD_XDICTIONARY
360
2FE
102
}
330
2A
100
AcDbVisualStyle
  2
Conceptual
 70
     9
 71
     3
 72
     2
 73
     0
 90
        0
 40
0.6
 41
30.0
 62
     5
 63
     7
421
 16777215
 74
     2
 91
        2
 64
     7
 65
   257
 75
     1
175
     1
 42
179.0
 92
        8
 66
     7
 43
1.0
 76
     1
 77
     6
 78
     2
 67
     7
 79
     3
170
     0
171
     0
290
     0
174
     0
 93
        1
 44
0.0
173
     0
291
     0
 45
0.0
1001
ACAD
1000
AcDbSavedByObjectVersion
1070
     0
  0
VISUALSTYLE
  5
35
102
{ACAD_REACTORS
330
2A
102
}
102
{ACAD_XDICTIONARY
360
300
102
}
330
2A
100
AcDbVisualStyle
  2
Dim
 70
    11
 71
     2
 72
     2
 73
     0
 90
        0
 40
0.6
 41
30.0
 62
     5
 63
     7
421
 16777215
 74
     1
 91
        4
 64
     7
 65
   257
 75
     1
175
     1
 42
1.0
 92
        8
 66
     7
 43
1.0
 76
     1
 77
     6
 78
     2
 67
     7
 79
     5
170
     0
171
     0
290
     0
174
     0
 93
        1
 44
-50.0
173
     0
291
     1
 45
0.0
1001
ACAD
1000
AcDbSavedByObjectVersion
1070
     0
  0
VISUALSTYLE
  5
3D
102
{ACAD_REACTORS
330
2A
102
}
102
{ACAD_XDICTIONARY
360
310
102
}
330
2A
100
AcDbVisualStyle
  2
EdgeColorOff
 70
    22
 71
     2
 72
     2
 73
     0
 90
        0
 40
0.6
 41
30.0
 62
     5
 63
     7
421
 16777215
 74
     1
 91
        4
 64
     7
 65
   257
 75
     1
175
     1
 42
1.0
 92
        8
 66
     7
 43
1.0
 76
     1
 77
     6
 78
     2
 67
     7
 79
     5
170
     0
171
     0
290
     0
174
     0
 93
        1
 44
0.0
173
     0
291
     1
 45
0.0
1001
ACAD
1000
AcDbSavedByObjectVersion
1070
     0
  0
VISUALSTYLE
  5
39
102
{ACAD_REACTORS
330
2A
102
}
102
{ACAD_XDICTIONARY
360
308
102
}
330
2A
100
AcDbVisualStyle
  2
Facepattern
 70
    15
 71
     2
 72
     2
 73
     0
 90
        0
 40
0.6
 41
30.0
 62
     5
 63
     7
421
 16777215
 74
     1
 91
        4
 64
     7
 65
   257
 75
     1
175
     1
 42
1.0
 92
        8
 66
     7
 43
1.0
 76
     1
 77
     6
 78
     2
 67
     7
 79
     5
170
     0
171
     0
290
     0
174
     0
 93
        1
 44
0.0
173
     0
291
     1
 45
0.0
1001
ACAD
1000
AcDbSavedByObjectVersion
1070
     0
  0
VISUALSTYLE
  5
2B
102
{ACAD_REACTORS
330
2A
102
}
102
{ACAD_XDICTIONARY
360
2EC
102
}
330
2A
100
AcDbVisualStyle
  2
Flat
 70
     0
 71
     2
 72
     1
 73
     1
 90
        2
 40
0.6
 41
30.0
 62
     5
 63
     7
421
 16777215
 74
     0
 91
        0
 64
     7
 65
   257
 75
     1
175
     1
 42
1.0
 92
        8
 66
     7
 43
1.0
 76
     1
 77
     6
 78
     2
 67
     7
 79
     5
170
     0
171
     0
290
     0
174
     0
 93
       13
 44
0.0
173
     0
291
     1
 45
0.0
1001
ACAD
1000
AcDbSavedByObjectVersion
1070
     0
  0
VISUALSTYLE
  5
2C
102
{ACAD_REACTORS
330
2A
102
}
102
{ACAD_XDICTIONARY
360
2EE
102
}
330
2A
100
AcDbVisualStyle
  2
FlatWithEdges
 70
     1
 71
     2
 72
     1
 73
     1
 90
        2
 40
0.6
 41
30.0
 62
     5
 63
     7
421
 16777215
 74
     1
 91
        0
 64
     7
 65
   257
 75
     1
175
     1
 42
1.0
 92
        0
 66
   257
 43
1.0
 76
     1
 77
     6
 78
     2
 67
     7
 79
     5
170
     0
171
     0
290
     0
174
     0
 93
       13
 44
0.0
173
     0
291
     1
 45
0.0
1001
ACAD
1000
AcDbSavedByObjectVersion
1070
     0
  0
VISUALSTYLE
  5
2D
102
{ACAD_REACTORS
330
2A
102
}
102
{ACAD_XDICTIONARY
360
2F0
102
}
330
2A
100
AcDbVisualStyle
  2
Gouraud
 70
     2
 71
     2
 72
     2
 73
     1
 90
        2
 40
0.6
 41
30.0
 62
     5
 63
     7
421
 16777215
 74
     0
 91
        0
 64
     7
 65
   257
 75
     1
175
     1
 42
1.0
 92
        0
 66
     7
 43
1.0
 76
     1
 77
     6
 78
     2
 67
     7
 79
     5
170
     0
171
     0
290
     0
174
     0
 93
       13
 44
0.0
173
     0
291
     1
 45
0.0
1001
ACAD
1000
AcDbSavedByObjectVersion
1070
     0
  0
VISUALSTYLE
  5
2E
102
{ACAD_REACTORS
330
2A
102
}
102
{ACAD_XDICTIONARY
360
2F2
102
}
330
2A
100
AcDbVisualStyle
  2
GouraudWithEdges
 70
     3
 71
     2
 72
     2
 73
     1
 90
        2
 40
0.6
 41
30.0
 62
     5
 63
     7
421
 16777215
 74
     1
 91
        0
 64
     7
 65
   257
 75
     1
175
     1
 42
1.0
 92
        0
 66
   257
 43
1.0
 76
     1
 77
     6
 78
     2
 67
     7
 79
     5
170
     0
171
     0
290
     0
174
     0
 93
       13
 44
0.0
173
     0
291
     1
 45
0.0
1001
ACAD
1000
AcDbSavedByObjectVersion
1070
     0
  0
VISUALSTYLE
  5
31
102
{ACAD_REACTORS
330
2A
102
}
102
{ACAD_XDICTIONARY
360
2F8
102
}
330
2A
100
AcDbVisualStyle
  2
Hidden
 70
     6
 71
     1
 72
     2
 73
     2
 90
        0
 40
0.6
 41
30.0
 62
     5
 63
     7
421
 16777215
 74
     2
 91
        2
 64
     7
 65
   257
 75
     2
175
     1
 42
40.0
 92
        0
 66
   257
 43
1.0
 76
     1
 77
     6
 78
     2
 67
     7
 79
     3
170
     0
171
     0
290
     0
174
     0
 93
        1
 44
0.0
173
     0
291
     0
 45
0.0
1001
ACAD
1000
AcDbSavedByObjectVersion
1070
     0
  0
VISUALSTYLE
  5
3B
102
{ACAD_REACTORS
330
2A
102
}
102
{ACAD_XDICTIONARY
360
30C
102
}
330
2A
100
AcDbVisualStyle
  2
JitterOff
 70
    20
 71
     2
 72
     2
 73
     0
 90
        0
 40
0.6
 41
30.0
 62
     5
 63
     7
421
 16777215
 74
     1
 91
        4
 64
     7
 65
   257
 75
     1
175
     1
 42
1.0
 92
       10
 66
     7
 43
1.0
 76
     1
 77
     6
 78
     2
 67
     7
 79
     5
170
     0
171
     0
290
     0
174
     0
 93
        1
 44
0.0
173
     0
291
     1
 45
0.0
1001
ACAD
1000
AcDbSavedByObjectVersion
1070
     0
  0
VISUALSTYLE
  5
38
102
{ACAD_REACTORS
330
2A
102
}
102
{ACAD_XDICTIONARY
360
306
102
}
330
2A
100
AcDbVisualStyle
  2
Linepattern
 70
    14
 71
     2
 72
     2
 73
     0
 90
        0
 40
0.6
 41
30.0
 62
     5
 63
     7
421
 16777215
 74
     1
 91
        4
 64
     7
 65
   257
 75
     7
175
     7
 42
1.0
 92
        8
 66
     7
 43
1.0
 76
     1
 77
     6
 78
     2
 67
     7
 79
     5
170
     0
171
     0
290
     0
174
     0
 93
        1
 44
0.0
173
     0
291
     1
 45
0.0
1001
ACAD
1000
AcDbSavedByObjectVersion
1070
     0
  0
VISUALSTYLE
  5
3C
102
{ACAD_REACTORS
330
2A
102
}
102
{ACAD_XDICTIONARY
360
30E
102
}
330
2A
100
AcDbVisualStyle
  2
OverhangOff
 70
    21
 71
     2
 72
     2
 73
     0
 90
        0
 40
0.6
 41
30.0
 62
     5
 63
     7
421
 16777215
 74
     1
 91
        4
 64
     7
 65
   257
 75
     1
175
     1
 42
1.0
 92
        9
 66
     7
 43
1.0
 76
     1
 77
     6
 78
     2
 67
     7
 79
     5
170
     0
171
     0
290
     0
174
     0
 93
        1
 44
0.0
173
     0
291
     1
 45
0.0
1001
ACAD
1000
AcDbSavedByObjectVersion
1070
     0
  0
VISUALSTYLE
  5
33
102
{ACAD_REACTORS
330
2A
102
}
102
{ACAD_XDICTIONARY
360
2FC
102
}
330
2A
100
AcDbVisualStyle
  2
Realistic
 70
     8
 71
     2
 72
     3
 73
     0
 90
        2
 40
0.6
 41
30.0
 62
     5
 63
     7
421
 16777215
 74
     0
 91
        0
 64
     7
 65
   257
 75
     1
175
     1
 42
1.0
 92
        8
 66
   257
 43
1.0
 76
     1
 77
     6
 78
     2
 67
     7
 79
     3
170
     0
171
     0
290
     0
174
     0
 93
       13
 44
0.0
173
     0
291
     0
 45
0.0
1001
ACAD
1000
AcDbSavedByObjectVersion
1070
     0
  0
VISUALSTYLE
  5
42
102
{ACAD_REACTORS
330
2A
102
}
102
{ACAD_XDICTIONARY
360
31A
102
}
330
2A
100
AcDbVisualStyle
  2
Shaded
 70
    27
 71
     2
 72
     2
 73
     1
 90
        2
 40
0.6
 41
30.0
 62
     5
 63
     7
421
 16777215
 74
     0
 91
        4
 64
     7
 65
   257
 75
     1
175
     1
 42
1.0
 92
        8
 66
   257
 43
1.0
 76
     1
 77
     6
 78
     2
 67
     8
425
  7895160
 79
     3
170
     0
171
     0
290
     0
174
     0
 93
        5
 44
0.0
173
     0
291
     0
 45
0.0
1001
ACAD
1000
AcDbSavedByObjectVersion
1070
     0
  0
VISUALSTYLE
  5
41
102
{ACAD_REACTORS
330
2A
102
}
102
{ACAD_XDICTIONARY
360
318
102
}
330
2A
100
AcDbVisualStyle
  2
Shaded with edges
 70
    26
 71
     2
 72
     2
 73
     1
 90
        2
 40
0.6
 41
30.0
 62
     5
 63
     7
421
 16777215
 74
     1
 91
       10
 64
     7
 65
   257
 75
     2
175
     1
 42
1.0
 92
        8
 66
   257
 43
1.0
 76
     1
 77
     6
 78
     2
 67
     7
 79
     3
170
     0
171
     0
290
     0
174
     0
 93
        5
 44
0.0
173
     0
291
     0
 45
0.0
1001
ACAD
1000
AcDbSavedByObjectVersion
1070
     0
  0
VISUALSTYLE
  5
3E
102
{ACAD_REACTORS
330
2A
102
}
102
{ACAD_XDICTIONARY
360
312
102
}
330
2A
100
AcDbVisualStyle
  2
Shades of Gray
 70
    23
 71
     2
 72
     2
 73
     3
 90
        0
 40
0.6
 41
30.0
 62
     5
 63
     7
421
 16777215
 74
     2
 91
        2
 64
     7
 65
     7
 75
     1
175
     1
 42
40.0
 92
        8
 66
     7
 43
1.0
 76
     1
 77
     6
 78
     2
 67
     7
 79
     3
170
     0
171
     0
290
     0
174
     0
 93
        1
 44
0.0
173
     0
291
     0
 45
0.0
1001
ACAD
1000
AcDbSavedByObjectVersion
1070
     0
  0
VISUALSTYLE
  5
3F
102
{ACAD_REACTORS
330
2A
102
}
102
{ACAD_XDICTIONARY
360
314
102
}
330
2A
100
AcDbVisualStyle
  2
Sketchy
 70
    24
 71
     1
 72
     2
 73
     2
 90
        0
 40
0.6
 41
30.0
 62
     5
 63
     7
421
 16777215
 74
     2
 91
        2
 64
     7
 65
     7
 75
     1
175
     1
 42
40.0
 92
       11
 66
     7
 43
1.0
 76
     1
 77
     6
 78
     2
 67
     7
 79
     6
170
     0
171
     0
290
     0
174
     0
 93
        1
 44
0.0
173
     0
291
     0
 45
0.0
1001
ACAD
1000
AcDbSavedByObjectVersion
1070
     0
  0
VISUALSTYLE
  5
37
102
{ACAD_REACTORS
330
2A
102
}
102
{ACAD_XDICTIONARY
360
304
102
}
330
2A
100
AcDbVisualStyle
  2
Thicken
 70
    13
 71
     2
 72
     2
 73
     0
 90
        0
 40
0.6
 41
30.0
 62
     5
 63
     7
421
 16777215
 74
     1
 91
        4
 64
     7
 65
   257
 75
     1
175
     1
 42
1.0
 92
       12
 66
     7
 43
1.0
 76
     1
 77
     6
 78
     2
 67
     7
 79
     5
170
     0
171
     0
290
     0
174
     0
 93
        1
 44
0.0
173
     0
291
     1
 45
0.0
1001
ACAD
1000
AcDbSavedByObjectVersion
1070
     0
  0
VISUALSTYLE
  5
30
102
{ACAD_REACTORS
330
2A
102
}
102
{ACAD_XDICTIONARY
360
2F6
102
}
330
2A
100
AcDbVisualStyle
  2
Wireframe
 70
     5
 71
     0
 72
     2
 73
     0
 90
        0
 40
0.6
 41
30.0
 62
     5
 63
     7
421
 16777215
 74
     1
 91
        4
 64
     7
 65
   257
 75
     1
175
     1
 42
1.0
 92
        0
 66
   257
 43
1.0
 76
     1
 77
     6
 78
     2
 67
     7
 79
     3
170
     0
171
     0
290
     0
174
     0
 93
        1
 44
0.0
173
     0
291
     0
 45
0.0
1001
ACAD
1000
AcDbSavedByObjectVersion
1070
     0
  0
VISUALSTYLE
  5
40
102
{ACAD_REACTORS
330
2A
102
}
102
{ACAD_XDICTIONARY
360
316
102
}
330
2A
100
AcDbVisualStyle
  2
X-Ray
 70
    25
 71
     2
 72
     2
 73
     1
 90
        1
 40
0.5
 41
30.0
 62
     5
 63
     7
421
 16777215
 74
     1
 91
        0
 64
     7
 65
   257
 75
     1
175
     1
 42
1.0
 92
        8
 66
     7
 43
1.0
 76
     1
 77
     6
 78
     2
 67
     7
 79
     3
170
     0
171
     0
290
     0
174
     0
 93
       13
 44
0.0
173
     0
291
     0
 45
0.0
1001
ACAD
1000
AcDbSavedByObjectVersion
1070
     0
  0
DICTIONARYVAR
  5
2EA
102
{ACAD_REACTORS
330
2E9
102
}
330
2E9
100
DictionaryVariables
280
     0
  1
1:1
  0
DICTIONARYVAR
  5
2EB
102
{ACAD_REACTORS
330
2E9
102
}
330
2E9
100
DictionaryVariables
280
     0
  1
1
  0
DICTIONARY
  5
31E
330
45
100
AcDbDictionary
280
     1
281
     1
  3
ACAD_XREC_ROUNDTRIP
360
31F
  0
DICTIONARY
  5
31C
330
44
100
AcDbDictionary
280
     1
281
     1
  3
ACAD_XREC_ROUNDTRIP
360
31D
  0
DICTIONARY
  5
320
330
46
100
AcDbDictionary
280
     1
281
     1
  3
ACAD_XREC_ROUNDTRIP
360
321
  0
DICTIONARY
  5
2F4
330
2F
100
AcDbDictionary
280
     1
281
     1
  3
ACAD_XREC_ROUNDTRIP
360
2F5
  0
DICTIONARY
  5
2FA
330
32
100
AcDbDictionary
280
     1
281
     1
  3
ACAD_XREC_ROUNDTRIP
360
2FB
  0
DICTIONARY
  5
302
330
36
100
AcDbDictionary
280
     1
281
     1
  3
ACAD_XREC_ROUNDTRIP
360
303
  0
DICTIONARY
  5
30A
330
3A
100
AcDbDictionary
280
     1
281
     1
  3
ACAD_XREC_ROUNDTRIP
360
30B
  0
DICTIONARY
  5
2FE
330
34
100
AcDbDictionary
280
     1
281
     1
  3
ACAD_XREC_ROUNDTRIP
360
2FF
  0
DICTIONARY
  5
300
330
35
100
AcDbDictionary
280
     1
281
     1
  3
ACAD_XREC_ROUNDTRIP
360
301
  0
DICTIONARY
  5
310
330
3D
100
AcDbDictionary
280
     1
281
     1
  3
ACAD_XREC_ROUNDTRIP
360
311
  0
DICTIONARY
  5
308
330
39
100
AcDbDictionary
280
     1
281
     1
  3
ACAD_XREC_ROUNDTRIP
360
309
  0
DICTIONARY
  5
2EC
330
2B
100
AcDbDictionary
280
     1
281
     1
  3
ACAD_XREC_ROUNDTRIP
360
2ED
  0
DICTIONARY
  5
2EE
330
2C
100
AcDbDictionary
280
     1
281
     1
  3
ACAD_XREC_ROUNDTRIP
360
2EF
  0
DICTIONARY
  5
2F0
330
2D
100
AcDbDictionary
280
     1
281
     1
  3
ACAD_XREC_ROUNDTRIP
360
2F1
  0
DICTIONARY
  5
2F2
330
2E
100
AcDbDictionary
280
     1
281
     1
  3
ACAD_XREC_ROUNDTRIP
360
2F3
  0
DICTIONARY
  5
2F8
330
31
100
AcDbDictionary
280
     1
281
     1
  3
ACAD_XREC_ROUNDTRIP
360
2F9
  0
DICTIONARY
  5
30C
330
3B
100
AcDbDictionary
280
     1
281
     1
  3
ACAD_XREC_ROUNDTRIP
360
30D
  0
DICTIONARY
  5
306
330
38
100
AcDbDictionary
280
     1
281
     1
  3
ACAD_XREC_ROUNDTRIP
360
307
  0
DICTIONARY
  5
30E
330
3C
100
AcDbDictionary
280
     1
281
     1
  3
ACAD_XREC_ROUNDTRIP
360
30F
  0
DICTIONARY
  5
2FC
330
33
100
AcDbDictionary
280
     1
281
     1
  3
ACAD_XREC_ROUNDTRIP
360
2FD
  0
DICTIONARY
  5
31A
330
42
100
AcDbDictionary
280
     1
281
     1
  3
ACAD_XREC_ROUNDTRIP
360
31B
  0
DICTIONARY
  5
318
330
41
100
AcDbDictionary
280
     1
281
     1
  3
ACAD_XREC_ROUNDTRIP
360
319
  0
DICTIONARY
  5
312
330
3E
100
AcDbDictionary
280
     1
281
     1
  3
ACAD_XREC_ROUNDTRIP
360
313
  0
DICTIONARY
  5
314
330
3F
100
AcDbDictionary
280
     1
281
     1
  3
ACAD_XREC_ROUNDTRIP
360
315
  0
DICTIONARY
  5
304
330
37
100
AcDbDictionary
280
     1
281
     1
  3
ACAD_XREC_ROUNDTRIP
360
305
  0
DICTIONARY
  5
2F6
330
30
100
AcDbDictionary
280
     1
281
     1
  3
ACAD_XREC_ROUNDTRIP
360
2F7
  0
DICTIONARY
  5
316
330
40
100
AcDbDictionary
280
     1
281
     1
  3
ACAD_XREC_ROUNDTRIP
360
317
  0
XRECORD
  5
31F
102
{ACAD_REACTORS
330
31E
102
}
330
31E
100
AcDbXrecord
280
     1
102
MATERIAL
148
0.0
149
0.0
149
0.0
 93
        0
 94
      127
282
     0
 72
     1
 77
     1
171
     1
175
     1
179
     1
273
     0
  0
XRECORD
  5
31D
102
{ACAD_REACTORS
330
31C
102
}
330
31C
100
AcDbXrecord
280
     1
102
MATERIAL
148
0.0
149
0.0
149
0.0
 93
        0
 94
      127
282
     0
 72
     1
 77
     1
171
     1
175
     1
179
     1
273
     0
  0
XRECORD
  5
321
102
{ACAD_REACTORS
330
320
102
}
330
320
100
AcDbXrecord
280
     1
102
MATERIAL
148
0.0
149
0.0
149
0.0
 93
        0
 94
      127
282
     0
 72
     1
 77
     1
171
     1
175
     1
179
     1
273
     0
  0
XRECORD
  5
2F5
102
{ACAD_REACTORS
330
2F4
102
}
330
2F4
100
AcDbXrecord
280
     1
102
RTVSPropertyOp0
 70
     1
102
RTVSPropertyOp1
 70
     1
102
RTVSPropertyOp2
 70
     1
102
RTVSPropertyOp3
 70
     1
102
RTVSPropertyOp4
 70
     1
102
RTVSPropertyOp5
 70
     1
102
RTVSPropertyOp6
 70
     1
102
RTVSPropertyOp7
 70
     1
102
RTVSPropertyOp8
 70
     1
102
RTVSPropertyOp9
 70
     1
102
RTVSPropertyOp10
 70
     1
102
RTVSPropertyOp11
 70
     1
102
RTVSPropertyOp12
 70
     1
102
RTVSPropertyOp13
 70
     1
102
RTVSPropertyOp14
 70
     1
102
RTVSPropertyOp15
 70
     1
102
RTVSPropertyOp16
 70
     1
102
RTVSPropertyOp17
 70
     1
102
RTVSPropertyOp18
 70
     1
102
RTVSPropertyOp19
 70
     1
102
RTVSPropertyOp20
 70
     1
102
RTVSPropertyOp21
 70
     1
102
RTVSPropertyOp22
 70
     1
102
RTVSPropertyOp23
 70
     1
102
RTVSPropertyOp24
 70
     1
102
RTVSPropertyOp25
 70
     1
102
RTVSPropertyOp26
 70
     1
102
RTVSPropertyOp27
 70
     1
102
RTVSPropertyOp28
 70
     1
102
RTVSPropertyOp29
 70
     1
102
RTVSPropertyOp30
 70
     1
102
RTVSPropertyOp31
 70
     1
102
RTVSPropertyOp32
 70
     1
102
RTVSPropertyOp33
 70
     1
102
RTVSPropertyOp34
 70
     1
102
RTVSPropertyOp35
 70
     1
102
RTVSPropertyOp36
 70
     1
102
RTVSPropertyOp37
 70
     1
102
RTVSPropertyOp38
 70
     1
102
RTVSPropertyOp39
 70
     1
102
RTVSPropertyOp40
 70
     1
102
RTVSPropertyOp41
 70
     1
102
RTVSPropertyOp42
 70
     1
102
RTVSPropertyOp43
 70
     1
102
RTVSPropertyOp44
 70
     1
102
RTVSPropertyOp45
 70
     1
102
RTVSPropertyOp46
 70
     1
102
RTVSPropertyOp47
 70
     1
102
RTVSPropertyOp48
 70
     1
102
RTVSPropertyOp49
 70
     1
102
RTVSPropertyOp50
 70
     1
102
RTVSPropertyOp51
 70
     0
102
RTVSPropertyOp52
 70
     0
102
RTVSPropertyOp53
 70
     1
102
RTVSPropertyOp54
 70
     1
102
RTVSPropertyOp55
 70
     1
102
RTVSPropertyOp56
 70
     1
102
RTVSPropertyOp57
 70
     1
102
RTVSPost2010Prop28
280
     1
102
RTVSPost2010PropOp28
 70
     1
102
RTVSPost2010Prop29
280
     1
102
RTVSPost2010PropOp29
 70
     1
102
RTVSPost2010Prop30
280
     0
102
RTVSPost2010PropOp30
 70
     1
102
RTVSPost2010Prop31
280
     0
102
RTVSPost2010PropOp31
 70
     1
102
RTVSPost2010Prop32
280
     0
102
RTVSPost2010PropOp32
 70
     1
102
RTVSPost2010Prop33
280
     0
102
RTVSPost2010PropOp33
 70
     1
102
RTVSPost2010Prop34
280
     0
102
RTVSPost2010PropOp34
 70
     1
102
RTVSPost2010Prop35
280
     0
102
RTVSPost2010PropOp35
 70
     1
102
RTVSPost2010Prop36
280
     0
102
RTVSPost2010PropOp36
 70
     1
102
RTVSPost2010Prop37
 90
       50
102
RTVSPost2010PropOp37
 70
     1
102
RTVSPost2010Prop38
140
0.0
102
RTVSPost2010PropOp38
 70
     1
102
RTVSPost2010Prop39
140
1.0
102
RTVSPost2010PropOp39
 70
     1
102
RTVSPost2010Prop40
 90
        0
102
RTVSPost2010PropOp40
 70
     1
102
RTVSPost2010Prop41ColorIndex
 90
       18
102
RTVSPost2010Prop41ColorRGB
 90
        0
102
RTVSPost2010PropOp41
 70
     1
102
RTVSPost2010Prop42
 90
       50
102
RTVSPost2010PropOp42
 70
     1
102
RTVSPost2010Prop43
 90
        3
102
RTVSPost2010PropOp43
 70
     1
102
RTVSPost2010Prop44ColorIndex
 90
        5
102
RTVSPost2010Prop44ColorRGB
 90
      255
102
RTVSPost2010PropOp44
 70
     1
102
RTVSPost2010Prop45
280
     0
102
RTVSPost2010PropOp45
 70
     1
102
RTVSPost2010Prop46
 90
       50
102
RTVSPost2010PropOp46
 70
     1
102
RTVSPost2010Prop47
 90
       50
102
RTVSPost2010PropOp47
 70
     1
102
RTVSPost2010Prop48
 90
       50
102
RTVSPost2010PropOp48
 70
     1
102
RTVSPost2010Prop49
280
     0
102
RTVSPost2010PropOp49
 70
     1
102
RTVSPost2010Prop50
 90
       50
102
RTVSPost2010PropOp50
 70
     1
102
RTVSPost2010Prop51ColorIndex
 90
      256
102
RTVSPost2010Prop51ColorRGB
 90
-16777216
102
RTVSPost2010PropOp51
 70
     0
102
RTVSPost2010Prop52
140
1.0
102
RTVSPost2010PropOp52
 70
     0
102
RTVSPost2010Prop53
 90
        2
102
RTVSPost2010PropOp53
 70
     1
102
RTVSPost2010Prop54
  1
strokes_ogs.tif
102
RTVSPost2010PropOp54
 70
     1
102
RTVSPost2010Prop55
280
     0
102
RTVSPost2010PropOp55
 70
     1
102
RTVSPost2010Prop56
140
1.0
102
RTVSPost2010PropOp56
 70
     1
102
RTVSPost2010Prop57
140
1.0
102
RTVSPost2010PropOp57
 70
     1
  0
XRECORD
  5
2FB
102
{ACAD_REACTORS
330
2FA
102
}
330
2FA
100
AcDbXrecord
280
     1
102
RTVSPropertyOp0
 70
     1
102
RTVSPropertyOp1
 70
     1
102
RTVSPropertyOp2
 70
     1
102
RTVSPropertyOp3
 70
     1
102
RTVSPropertyOp4
 70
     1
102
RTVSPropertyOp5
 70
     1
102
RTVSPropertyOp6
 70
     1
102
RTVSPropertyOp7
 70
     1
102
RTVSPropertyOp8
 70
     1
102
RTVSPropertyOp9
 70
     1
102
RTVSPropertyOp10
 70
     1
102
RTVSPropertyOp11
 70
     1
102
RTVSPropertyOp12
 70
     1
102
RTVSPropertyOp13
 70
     1
102
RTVSPropertyOp14
 70
     1
102
RTVSPropertyOp15
 70
     1
102
RTVSPropertyOp16
 70
     1
102
RTVSPropertyOp17
 70
     1
102
RTVSPropertyOp18
 70
     1
102
RTVSPropertyOp19
 70
     1
102
RTVSPropertyOp20
 70
     1
102
RTVSPropertyOp21
 70
     1
102
RTVSPropertyOp22
 70
     1
102
RTVSPropertyOp23
 70
     1
102
RTVSPropertyOp24
 70
     1
102
RTVSPropertyOp25
 70
     1
102
RTVSPropertyOp26
 70
     1
102
RTVSPropertyOp27
 70
     1
102
RTVSPropertyOp28
 70
     1
102
RTVSPropertyOp29
 70
     1
102
RTVSPropertyOp30
 70
     1
102
RTVSPropertyOp31
 70
     1
102
RTVSPropertyOp32
 70
     1
102
RTVSPropertyOp33
 70
     1
102
RTVSPropertyOp34
 70
     1
102
RTVSPropertyOp35
 70
     1
102
RTVSPropertyOp36
 70
     1
102
RTVSPropertyOp37
 70
     1
102
RTVSPropertyOp38
 70
     1
102
RTVSPropertyOp39
 70
     1
102
RTVSPropertyOp40
 70
     1
102
RTVSPropertyOp41
 70
     1
102
RTVSPropertyOp42
 70
     1
102
RTVSPropertyOp43
 70
     1
102
RTVSPropertyOp44
 70
     1
102
RTVSPropertyOp45
 70
     1
102
RTVSPropertyOp46
 70
     1
102
RTVSPropertyOp47
 70
     1
102
RTVSPropertyOp48
 70
     1
102
RTVSPropertyOp49
 70
     1
102
RTVSPropertyOp50
 70
     1
102
RTVSPropertyOp51
 70
     0
102
RTVSPropertyOp52
 70
     0
102
RTVSPropertyOp53
 70
     1
102
RTVSPropertyOp54
 70
     1
102
RTVSPropertyOp55
 70
     1
102
RTVSPropertyOp56
 70
     1
102
RTVSPropertyOp57
 70
     1
102
RTVSPost2010Prop28
280
     0
102
RTVSPost2010PropOp28
 70
     1
102
RTVSPost2010Prop29
280
     1
102
RTVSPost2010PropOp29
 70
     1
102
RTVSPost2010Prop30
280
     1
102
RTVSPost2010PropOp30
 70
     1
102
RTVSPost2010Prop31
280
     0
102
RTVSPost2010PropOp31
 70
     1
102
RTVSPost2010Prop32
280
     0
102
RTVSPost2010PropOp32
 70
     1
102
RTVSPost2010Prop33
280
     0
102
RTVSPost2010PropOp33
 70
     1
102
RTVSPost2010Prop34
280
     0
102
RTVSPost2010PropOp34
 70
     1
102
RTVSPost2010Prop35
280
     0
102
RTVSPost2010PropOp35
 70
     1
102
RTVSPost2010Prop36
280
     0
102
RTVSPost2010PropOp36
 70
     1
102
RTVSPost2010Prop37
 90
       50
102
RTVSPost2010PropOp37
 70
     1
102
RTVSPost2010Prop38
140
0.0
102
RTVSPost2010PropOp38
 70
     1
102
RTVSPost2010Prop39
140
1.0
102
RTVSPost2010PropOp39
 70
     1
102
RTVSPost2010Prop40
 90
        0
102
RTVSPost2010PropOp40
 70
     1
102
RTVSPost2010Prop41ColorIndex
 90
       18
102
RTVSPost2010Prop41ColorRGB
 90
        0
102
RTVSPost2010PropOp41
 70
     1
102
RTVSPost2010Prop42
 90
       50
102
RTVSPost2010PropOp42
 70
     1
102
RTVSPost2010Prop43
 90
        3
102
RTVSPost2010PropOp43
 70
     1
102
RTVSPost2010Prop44ColorIndex
 90
        5
102
RTVSPost2010Prop44ColorRGB
 90
      255
102
RTVSPost2010PropOp44
 70
     1
102
RTVSPost2010Prop45
280
     0
102
RTVSPost2010PropOp45
 70
     1
102
RTVSPost2010Prop46
 90
       50
102
RTVSPost2010PropOp46
 70
     1
102
RTVSPost2010Prop47
 90
       50
102
RTVSPost2010PropOp47
 70
     1
102
RTVSPost2010Prop48
 90
       50
102
RTVSPost2010PropOp48
 70
     1
102
RTVSPost2010Prop49
280
     0
102
RTVSPost2010PropOp49
 70
     1
102
RTVSPost2010Prop50
 90
       50
102
RTVSPost2010PropOp50
 70
     1
102
RTVSPost2010Prop51ColorIndex
 90
      256
102
RTVSPost2010Prop51ColorRGB
 90
-16777216
102
RTVSPost2010PropOp51
 70
     0
102
RTVSPost2010Prop52
140
1.0
102
RTVSPost2010PropOp52
 70
     0
102
RTVSPost2010Prop53
 90
        2
102
RTVSPost2010PropOp53
 70
     1
102
RTVSPost2010Prop54
  1
strokes_ogs.tif
102
RTVSPost2010PropOp54
 70
     1
102
RTVSPost2010Prop55
280
     0
102
RTVSPost2010PropOp55
 70
     1
102
RTVSPost2010Prop56
140
1.0
102
RTVSPost2010PropOp56
 70
     1
102
RTVSPost2010Prop57
140
1.0
102
RTVSPost2010PropOp57
 70
     1
  0
XRECORD
  5
303
102
{ACAD_REACTORS
330
302
102
}
330
302
100
AcDbXrecord
280
     1
102
RTVSPropertyOp0
 70
     1
102
RTVSPropertyOp1
 70
     1
102
RTVSPropertyOp2
 70
     1
102
RTVSPropertyOp3
 70
     1
102
RTVSPropertyOp4
 70
     1
102
RTVSPropertyOp5
 70
     1
102
RTVSPropertyOp6
 70
     1
102
RTVSPropertyOp7
 70
     1
102
RTVSPropertyOp8
 70
     1
102
RTVSPropertyOp9
 70
     1
102
RTVSPropertyOp10
 70
     1
102
RTVSPropertyOp11
 70
     1
102
RTVSPropertyOp12
 70
     1
102
RTVSPropertyOp13
 70
     1
102
RTVSPropertyOp14
 70
     1
102
RTVSPropertyOp15
 70
     1
102
RTVSPropertyOp16
 70
     1
102
RTVSPropertyOp17
 70
     1
102
RTVSPropertyOp18
 70
     1
102
RTVSPropertyOp19
 70
     1
102
RTVSPropertyOp20
 70
     1
102
RTVSPropertyOp21
 70
     1
102
RTVSPropertyOp22
 70
     1
102
RTVSPropertyOp23
 70
     1
102
RTVSPropertyOp24
 70
     1
102
RTVSPropertyOp25
 70
     1
102
RTVSPropertyOp26
 70
     1
102
RTVSPropertyOp27
 70
     1
102
RTVSPropertyOp28
 70
     1
102
RTVSPropertyOp29
 70
     1
102
RTVSPropertyOp30
 70
     1
102
RTVSPropertyOp31
 70
     1
102
RTVSPropertyOp32
 70
     1
102
RTVSPropertyOp33
 70
     1
102
RTVSPropertyOp34
 70
     1
102
RTVSPropertyOp35
 70
     1
102
RTVSPropertyOp36
 70
     1
102
RTVSPropertyOp37
 70
     1
102
RTVSPropertyOp38
 70
     1
102
RTVSPropertyOp39
 70
     1
102
RTVSPropertyOp40
 70
     1
102
RTVSPropertyOp41
 70
     1
102
RTVSPropertyOp42
 70
     1
102
RTVSPropertyOp43
 70
     1
102
RTVSPropertyOp44
 70
     1
102
RTVSPropertyOp45
 70
     1
102
RTVSPropertyOp46
 70
     1
102
RTVSPropertyOp47
 70
     1
102
RTVSPropertyOp48
 70
     1
102
RTVSPropertyOp49
 70
     1
102
RTVSPropertyOp50
 70
     1
102
RTVSPropertyOp51
 70
     0
102
RTVSPropertyOp52
 70
     0
102
RTVSPropertyOp53
 70
     1
102
RTVSPropertyOp54
 70
     1
102
RTVSPropertyOp55
 70
     1
102
RTVSPropertyOp56
 70
     1
102
RTVSPropertyOp57
 70
     1
102
RTVSPost2010Prop28
280
     0
102
RTVSPost2010PropOp28
 70
     1
102
RTVSPost2010Prop29
280
     1
102
RTVSPost2010PropOp29
 70
     1
102
RTVSPost2010Prop30
280
     1
102
RTVSPost2010PropOp30
 70
     1
102
RTVSPost2010Prop31
280
     0
102
RTVSPost2010PropOp31
 70
     1
102
RTVSPost2010Prop32
280
     0
102
RTVSPost2010PropOp32
 70
     1
102
RTVSPost2010Prop33
280
     0
102
RTVSPost2010PropOp33
 70
     1
102
RTVSPost2010Prop34
280
     0
102
RTVSPost2010PropOp34
 70
     1
102
RTVSPost2010Prop35
280
     0
102
RTVSPost2010PropOp35
 70
     1
102
RTVSPost2010Prop36
280
     0
102
RTVSPost2010PropOp36
 70
     1
102
RTVSPost2010Prop37
 90
       50
102
RTVSPost2010PropOp37
 70
     1
102
RTVSPost2010Prop38
140
0.0
102
RTVSPost2010PropOp38
 70
     1
102
RTVSPost2010Prop39
140
1.0
102
RTVSPost2010PropOp39
 70
     1
102
RTVSPost2010Prop40
 90
        0
102
RTVSPost2010PropOp40
 70
     1
102
RTVSPost2010Prop41ColorIndex
 90
       18
102
RTVSPost2010Prop41ColorRGB
 90
        0
102
RTVSPost2010PropOp41
 70
     1
102
RTVSPost2010Prop42
 90
       50
102
RTVSPost2010PropOp42
 70
     1
102
RTVSPost2010Prop43
 90
        3
102
RTVSPost2010PropOp43
 70
     1
102
RTVSPost2010Prop44ColorIndex
 90
        5
102
RTVSPost2010Prop44ColorRGB
 90
      255
102
RTVSPost2010PropOp44
 70
     1
102
RTVSPost2010Prop45
280
     0
102
RTVSPost2010PropOp45
 70
     1
102
RTVSPost2010Prop46
 90
       50
102
RTVSPost2010PropOp46
 70
     1
102
RTVSPost2010Prop47
 90
       50
102
RTVSPost2010PropOp47
 70
     1
102
RTVSPost2010Prop48
 90
       50
102
RTVSPost2010PropOp48
 70
     1
102
RTVSPost2010Prop49
280
     0
102
RTVSPost2010PropOp49
 70
     1
102
RTVSPost2010Prop50
 90
       50
102
RTVSPost2010PropOp50
 70
     1
102
RTVSPost2010Prop51ColorIndex
 90
      256
102
RTVSPost2010Prop51ColorRGB
 90
-16777216
102
RTVSPost2010PropOp51
 70
     0
102
RTVSPost2010Prop52
140
1.0
102
RTVSPost2010PropOp52
 70
     0
102
RTVSPost2010Prop53
 90
        2
102
RTVSPost2010PropOp53
 70
     1
102
RTVSPost2010Prop54
  1
strokes_ogs.tif
102
RTVSPost2010PropOp54
 70
     1
102
RTVSPost2010Prop55
280
     0
102
RTVSPost2010PropOp55
 70
     1
102
RTVSPost2010Prop56
140
1.0
102
RTVSPost2010PropOp56
 70
     1
102
RTVSPost2010Prop57
140
1.0
102
RTVSPost2010PropOp57
 70
     1
  0
XRECORD
  5
30B
102
{ACAD_REACTORS
330
30A
102
}
330
30A
100
AcDbXrecord
280
     1
102
RTVSPropertyOp0
 70
     1
102
RTVSPropertyOp1
 70
     1
102
RTVSPropertyOp2
 70
     1
102
RTVSPropertyOp3
 70
     1
102
RTVSPropertyOp4
 70
     1
102
RTVSPropertyOp5
 70
     1
102
RTVSPropertyOp6
 70
     1
102
RTVSPropertyOp7
 70
     1
102
RTVSPropertyOp8
 70
     1
102
RTVSPropertyOp9
 70
     1
102
RTVSPropertyOp10
 70
     1
102
RTVSPropertyOp11
 70
     1
102
RTVSPropertyOp12
 70
     1
102
RTVSPropertyOp13
 70
     1
102
RTVSPropertyOp14
 70
     1
102
RTVSPropertyOp15
 70
     1
102
RTVSPropertyOp16
 70
     1
102
RTVSPropertyOp17
 70
     1
102
RTVSPropertyOp18
 70
     1
102
RTVSPropertyOp19
 70
     1
102
RTVSPropertyOp20
 70
     1
102
RTVSPropertyOp21
 70
     1
102
RTVSPropertyOp22
 70
     1
102
RTVSPropertyOp23
 70
     1
102
RTVSPropertyOp24
 70
     1
102
RTVSPropertyOp25
 70
     1
102
RTVSPropertyOp26
 70
     1
102
RTVSPropertyOp27
 70
     1
102
RTVSPropertyOp28
 70
     1
102
RTVSPropertyOp29
 70
     1
102
RTVSPropertyOp30
 70
     1
102
RTVSPropertyOp31
 70
     1
102
RTVSPropertyOp32
 70
     1
102
RTVSPropertyOp33
 70
     1
102
RTVSPropertyOp34
 70
     1
102
RTVSPropertyOp35
 70
     1
102
RTVSPropertyOp36
 70
     1
102
RTVSPropertyOp37
 70
     1
102
RTVSPropertyOp38
 70
     1
102
RTVSPropertyOp39
 70
     1
102
RTVSPropertyOp40
 70
     1
102
RTVSPropertyOp41
 70
     1
102
RTVSPropertyOp42
 70
     1
102
RTVSPropertyOp43
 70
     1
102
RTVSPropertyOp44
 70
     1
102
RTVSPropertyOp45
 70
     1
102
RTVSPropertyOp46
 70
     1
102
RTVSPropertyOp47
 70
     1
102
RTVSPropertyOp48
 70
     1
102
RTVSPropertyOp49
 70
     1
102
RTVSPropertyOp50
 70
     1
102
RTVSPropertyOp51
 70
     0
102
RTVSPropertyOp52
 70
     0
102
RTVSPropertyOp53
 70
     1
102
RTVSPropertyOp54
 70
     1
102
RTVSPropertyOp55
 70
     1
102
RTVSPropertyOp56
 70
     1
102
RTVSPropertyOp57
 70
     1
102
RTVSPost2010Prop28
280
     0
102
RTVSPost2010PropOp28
 70
     1
102
RTVSPost2010Prop29
280
     1
102
RTVSPost2010PropOp29
 70
     1
102
RTVSPost2010Prop30
280
     1
102
RTVSPost2010PropOp30
 70
     1
102
RTVSPost2010Prop31
280
     0
102
RTVSPost2010PropOp31
 70
     1
102
RTVSPost2010Prop32
280
     0
102
RTVSPost2010PropOp32
 70
     1
102
RTVSPost2010Prop33
280
     0
102
RTVSPost2010PropOp33
 70
     1
102
RTVSPost2010Prop34
280
     0
102
RTVSPost2010PropOp34
 70
     1
102
RTVSPost2010Prop35
280
     0
102
RTVSPost2010PropOp35
 70
     1
102
RTVSPost2010Prop36
280
     0
102
RTVSPost2010PropOp36
 70
     1
102
RTVSPost2010Prop37
 90
       50
102
RTVSPost2010PropOp37
 70
     1
102
RTVSPost2010Prop38
140
0.0
102
RTVSPost2010PropOp38
 70
     1
102
RTVSPost2010Prop39
140
1.0
102
RTVSPost2010PropOp39
 70
     1
102
RTVSPost2010Prop40
 90
        0
102
RTVSPost2010PropOp40
 70
     1
102
RTVSPost2010Prop41ColorIndex
 90
       18
102
RTVSPost2010Prop41ColorRGB
 90
        0
102
RTVSPost2010PropOp41
 70
     1
102
RTVSPost2010Prop42
 90
       50
102
RTVSPost2010PropOp42
 70
     1
102
RTVSPost2010Prop43
 90
        3
102
RTVSPost2010PropOp43
 70
     1
102
RTVSPost2010Prop44ColorIndex
 90
        5
102
RTVSPost2010Prop44ColorRGB
 90
      255
102
RTVSPost2010PropOp44
 70
     1
102
RTVSPost2010Prop45
280
     0
102
RTVSPost2010PropOp45
 70
     1
102
RTVSPost2010Prop46
 90
       50
102
RTVSPost2010PropOp46
 70
     1
102
RTVSPost2010Prop47
 90
       50
102
RTVSPost2010PropOp47
 70
     1
102
RTVSPost2010Prop48
 90
       50
102
RTVSPost2010PropOp48
 70
     1
102
RTVSPost2010Prop49
280
     0
102
RTVSPost2010PropOp49
 70
     1
102
RTVSPost2010Prop50
 90
       50
102
RTVSPost2010PropOp50
 70
     1
102
RTVSPost2010Prop51ColorIndex
 90
      256
102
RTVSPost2010Prop51ColorRGB
 90
-16777216
102
RTVSPost2010PropOp51
 70
     0
102
RTVSPost2010Prop52
140
1.0
102
RTVSPost2010PropOp52
 70
     0
102
RTVSPost2010Prop53
 90
        2
102
RTVSPost2010PropOp53
 70
     1
102
RTVSPost2010Prop54
  1
strokes_ogs.tif
102
RTVSPost2010PropOp54
 70
     1
102
RTVSPost2010Prop55
280
     0
102
RTVSPost2010PropOp55
 70
     1
102
RTVSPost2010Prop56
140
1.0
102
RTVSPost2010PropOp56
 70
     1
102
RTVSPost2010Prop57
140
1.0
102
RTVSPost2010PropOp57
 70
     1
  0
XRECORD
  5
2FF
102
{ACAD_REACTORS
330
2FE
102
}
330
2FE
100
AcDbXrecord
280
     1
102
RTVSPropertyOp0
 70
     1
102
RTVSPropertyOp1
 70
     1
102
RTVSPropertyOp2
 70
     1
102
RTVSPropertyOp3
 70
     1
102
RTVSPropertyOp4
 70
     1
102
RTVSPropertyOp5
 70
     1
102
RTVSPropertyOp6
 70
     1
102
RTVSPropertyOp7
 70
     1
102
RTVSPropertyOp8
 70
     1
102
RTVSPropertyOp9
 70
     1
102
RTVSPropertyOp10
 70
     1
102
RTVSPropertyOp11
 70
     1
102
RTVSPropertyOp12
 70
     1
102
RTVSPropertyOp13
 70
     1
102
RTVSPropertyOp14
 70
     1
102
RTVSPropertyOp15
 70
     1
102
RTVSPropertyOp16
 70
     1
102
RTVSPropertyOp17
 70
     1
102
RTVSPropertyOp18
 70
     1
102
RTVSPropertyOp19
 70
     1
102
RTVSPropertyOp20
 70
     1
102
RTVSPropertyOp21
 70
     1
102
RTVSPropertyOp22
 70
     1
102
RTVSPropertyOp23
 70
     1
102
RTVSPropertyOp24
 70
     1
102
RTVSPropertyOp25
 70
     1
102
RTVSPropertyOp26
 70
     1
102
RTVSPropertyOp27
 70
     1
102
RTVSPropertyOp28
 70
     1
102
RTVSPropertyOp29
 70
     1
102
RTVSPropertyOp30
 70
     1
102
RTVSPropertyOp31
 70
     1
102
RTVSPropertyOp32
 70
     1
102
RTVSPropertyOp33
 70
     1
102
RTVSPropertyOp34
 70
     1
102
RTVSPropertyOp35
 70
     1
102
RTVSPropertyOp36
 70
     1
102
RTVSPropertyOp37
 70
     1
102
RTVSPropertyOp38
 70
     1
102
RTVSPropertyOp39
 70
     1
102
RTVSPropertyOp40
 70
     1
102
RTVSPropertyOp41
 70
     1
102
RTVSPropertyOp42
 70
     1
102
RTVSPropertyOp43
 70
     1
102
RTVSPropertyOp44
 70
     1
102
RTVSPropertyOp45
 70
     1
102
RTVSPropertyOp46
 70
     1
102
RTVSPropertyOp47
 70
     1
102
RTVSPropertyOp48
 70
     1
102
RTVSPropertyOp49
 70
     1
102
RTVSPropertyOp50
 70
     1
102
RTVSPropertyOp51
 70
     0
102
RTVSPropertyOp52
 70
     0
102
RTVSPropertyOp53
 70
     1
102
RTVSPropertyOp54
 70
     1
102
RTVSPropertyOp55
 70
     1
102
RTVSPropertyOp56
 70
     1
102
RTVSPropertyOp57
 70
     1
102
RTVSPost2010Prop28
280
     0
102
RTVSPost2010PropOp28
 70
     1
102
RTVSPost2010Prop29
280
     1
102
RTVSPost2010PropOp29
 70
     1
102
RTVSPost2010Prop30
280
     1
102
RTVSPost2010PropOp30
 70
     1
102
RTVSPost2010Prop31
280
     0
102
RTVSPost2010PropOp31
 70
     1
102
RTVSPost2010Prop32
280
     0
102
RTVSPost2010PropOp32
 70
     1
102
RTVSPost2010Prop33
280
     0
102
RTVSPost2010PropOp33
 70
     1
102
RTVSPost2010Prop34
280
     0
102
RTVSPost2010PropOp34
 70
     1
102
RTVSPost2010Prop35
280
     0
102
RTVSPost2010PropOp35
 70
     1
102
RTVSPost2010Prop36
280
     0
102
RTVSPost2010PropOp36
 70
     1
102
RTVSPost2010Prop37
 90
       50
102
RTVSPost2010PropOp37
 70
     1
102
RTVSPost2010Prop38
140
0.0
102
RTVSPost2010PropOp38
 70
     1
102
RTVSPost2010Prop39
140
1.0
102
RTVSPost2010PropOp39
 70
     1
102
RTVSPost2010Prop40
 90
        0
102
RTVSPost2010PropOp40
 70
     1
102
RTVSPost2010Prop41ColorIndex
 90
       18
102
RTVSPost2010Prop41ColorRGB
 90
        0
102
RTVSPost2010PropOp41
 70
     1
102
RTVSPost2010Prop42
 90
       50
102
RTVSPost2010PropOp42
 70
     1
102
RTVSPost2010Prop43
 90
        3
102
RTVSPost2010PropOp43
 70
     1
102
RTVSPost2010Prop44ColorIndex
 90
        5
102
RTVSPost2010Prop44ColorRGB
 90
      255
102
RTVSPost2010PropOp44
 70
     1
102
RTVSPost2010Prop45
280
     0
102
RTVSPost2010PropOp45
 70
     1
102
RTVSPost2010Prop46
 90
       50
102
RTVSPost2010PropOp46
 70
     1
102
RTVSPost2010Prop47
 90
       50
102
RTVSPost2010PropOp47
 70
     1
102
RTVSPost2010Prop48
 90
       50
102
RTVSPost2010PropOp48
 70
     1
102
RTVSPost2010Prop49
280
     0
102
RTVSPost2010PropOp49
 70
     1
102
RTVSPost2010Prop50
 90
       50
102
RTVSPost2010PropOp50
 70
     1
102
RTVSPost2010Prop51ColorIndex
 90
      256
102
RTVSPost2010Prop51ColorRGB
 90
-16777216
102
RTVSPost2010PropOp51
 70
     0
102
RTVSPost2010Prop52
140
1.0
102
RTVSPost2010PropOp52
 70
     0
102
RTVSPost2010Prop53
 90
        2
102
RTVSPost2010PropOp53
 70
     1
102
RTVSPost2010Prop54
  1
strokes_ogs.tif
102
RTVSPost2010PropOp54
 70
     1
102
RTVSPost2010Prop55
280
     0
102
RTVSPost2010PropOp55
 70
     1
102
RTVSPost2010Prop56
140
1.0
102
RTVSPost2010PropOp56
 70
     1
102
RTVSPost2010Prop57
140
1.0
102
RTVSPost2010PropOp57
 70
     1
  0
XRECORD
  5
301
102
{ACAD_REACTORS
330
300
102
}
330
300
100
AcDbXrecord
280
     1
102
RTVSPropertyOp0
 70
     1
102
RTVSPropertyOp1
 70
     1
102
RTVSPropertyOp2
 70
     1
102
RTVSPropertyOp3
 70
     1
102
RTVSPropertyOp4
 70
     1
102
RTVSPropertyOp5
 70
     1
102
RTVSPropertyOp6
 70
     1
102
RTVSPropertyOp7
 70
     1
102
RTVSPropertyOp8
 70
     1
102
RTVSPropertyOp9
 70
     1
102
RTVSPropertyOp10
 70
     1
102
RTVSPropertyOp11
 70
     1
102
RTVSPropertyOp12
 70
     1
102
RTVSPropertyOp13
 70
     1
102
RTVSPropertyOp14
 70
     1
102
RTVSPropertyOp15
 70
     1
102
RTVSPropertyOp16
 70
     1
102
RTVSPropertyOp17
 70
     1
102
RTVSPropertyOp18
 70
     1
102
RTVSPropertyOp19
 70
     1
102
RTVSPropertyOp20
 70
     1
102
RTVSPropertyOp21
 70
     1
102
RTVSPropertyOp22
 70
     1
102
RTVSPropertyOp23
 70
     1
102
RTVSPropertyOp24
 70
     1
102
RTVSPropertyOp25
 70
     1
102
RTVSPropertyOp26
 70
     1
102
RTVSPropertyOp27
 70
     1
102
RTVSPropertyOp28
 70
     1
102
RTVSPropertyOp29
 70
     1
102
RTVSPropertyOp30
 70
     1
102
RTVSPropertyOp31
 70
     1
102
RTVSPropertyOp32
 70
     1
102
RTVSPropertyOp33
 70
     1
102
RTVSPropertyOp34
 70
     1
102
RTVSPropertyOp35
 70
     1
102
RTVSPropertyOp36
 70
     1
102
RTVSPropertyOp37
 70
     1
102
RTVSPropertyOp38
 70
     1
102
RTVSPropertyOp39
 70
     1
102
RTVSPropertyOp40
 70
     1
102
RTVSPropertyOp41
 70
     1
102
RTVSPropertyOp42
 70
     1
102
RTVSPropertyOp43
 70
     1
102
RTVSPropertyOp44
 70
     1
102
RTVSPropertyOp45
 70
     1
102
RTVSPropertyOp46
 70
     1
102
RTVSPropertyOp47
 70
     1
102
RTVSPropertyOp48
 70
     1
102
RTVSPropertyOp49
 70
     1
102
RTVSPropertyOp50
 70
     1
102
RTVSPropertyOp51
 70
     0
102
RTVSPropertyOp52
 70
     0
102
RTVSPropertyOp53
 70
     1
102
RTVSPropertyOp54
 70
     1
102
RTVSPropertyOp55
 70
     1
102
RTVSPropertyOp56
 70
     1
102
RTVSPropertyOp57
 70
     1
102
RTVSPost2010Prop28
280
     0
102
RTVSPost2010PropOp28
 70
     1
102
RTVSPost2010Prop29
280
     1
102
RTVSPost2010PropOp29
 70
     1
102
RTVSPost2010Prop30
280
     1
102
RTVSPost2010PropOp30
 70
     1
102
RTVSPost2010Prop31
280
     0
102
RTVSPost2010PropOp31
 70
     1
102
RTVSPost2010Prop32
280
     0
102
RTVSPost2010PropOp32
 70
     1
102
RTVSPost2010Prop33
280
     0
102
RTVSPost2010PropOp33
 70
     1
102
RTVSPost2010Prop34
280
     0
102
RTVSPost2010PropOp34
 70
     1
102
RTVSPost2010Prop35
280
     0
102
RTVSPost2010PropOp35
 70
     1
102
RTVSPost2010Prop36
280
     0
102
RTVSPost2010PropOp36
 70
     1
102
RTVSPost2010Prop37
 90
       50
102
RTVSPost2010PropOp37
 70
     1
102
RTVSPost2010Prop38
140
0.0
102
RTVSPost2010PropOp38
 70
     1
102
RTVSPost2010Prop39
140
1.0
102
RTVSPost2010PropOp39
 70
     1
102
RTVSPost2010Prop40
 90
        0
102
RTVSPost2010PropOp40
 70
     1
102
RTVSPost2010Prop41ColorIndex
 90
       18
102
RTVSPost2010Prop41ColorRGB
 90
        0
102
RTVSPost2010PropOp41
 70
     1
102
RTVSPost2010Prop42
 90
       50
102
RTVSPost2010PropOp42
 70
     1
102
RTVSPost2010Prop43
 90
        3
102
RTVSPost2010PropOp43
 70
     1
102
RTVSPost2010Prop44ColorIndex
 90
        5
102
RTVSPost2010Prop44ColorRGB
 90
      255
102
RTVSPost2010PropOp44
 70
     1
102
RTVSPost2010Prop45
280
     0
102
RTVSPost2010PropOp45
 70
     1
102
RTVSPost2010Prop46
 90
       50
102
RTVSPost2010PropOp46
 70
     1
102
RTVSPost2010Prop47
 90
       50
102
RTVSPost2010PropOp47
 70
     1
102
RTVSPost2010Prop48
 90
       50
102
RTVSPost2010PropOp48
 70
     1
102
RTVSPost2010Prop49
280
     0
102
RTVSPost2010PropOp49
 70
     1
102
RTVSPost2010Prop50
 90
       50
102
RTVSPost2010PropOp50
 70
     1
102
RTVSPost2010Prop51ColorIndex
 90
      256
102
RTVSPost2010Prop51ColorRGB
 90
-16777216
102
RTVSPost2010PropOp51
 70
     0
102
RTVSPost2010Prop52
140
1.0
102
RTVSPost2010PropOp52
 70
     0
102
RTVSPost2010Prop53
 90
        2
102
RTVSPost2010PropOp53
 70
     1
102
RTVSPost2010Prop54
  1
strokes_ogs.tif
102
RTVSPost2010PropOp54
 70
     1
102
RTVSPost2010Prop55
280
     0
102
RTVSPost2010PropOp55
 70
     1
102
RTVSPost2010Prop56
140
1.0
102
RTVSPost2010PropOp56
 70
     1
102
RTVSPost2010Prop57
140
1.0
102
RTVSPost2010PropOp57
 70
     1
  0
XRECORD
  5
311
102
{ACAD_REACTORS
330
310
102
}
330
310
100
AcDbXrecord
280
     1
102
RTVSPropertyOp0
 70
     0
102
RTVSPropertyOp1
 70
     0
102
RTVSPropertyOp2
 70
     0
102
RTVSPropertyOp3
 70
     0
102
RTVSPropertyOp4
 70
     0
102
RTVSPropertyOp5
 70
     0
102
RTVSPropertyOp6
 70
     0
102
RTVSPropertyOp7
 70
     0
102
RTVSPropertyOp8
 70
     0
102
RTVSPropertyOp9
 70
     0
102
RTVSPropertyOp10
 70
     0
102
RTVSPropertyOp11
 70
     0
102
RTVSPropertyOp12
 70
     0
102
RTVSPropertyOp13
 70
     0
102
RTVSPropertyOp14
 70
     2
102
RTVSPropertyOp15
 70
     0
102
RTVSPropertyOp16
 70
     0
102
RTVSPropertyOp17
 70
     0
102
RTVSPropertyOp18
 70
     0
102
RTVSPropertyOp19
 70
     0
102
RTVSPropertyOp20
 70
     0
102
RTVSPropertyOp21
 70
     0
102
RTVSPropertyOp22
 70
     0
102
RTVSPropertyOp23
 70
     0
102
RTVSPropertyOp24
 70
     0
102
RTVSPropertyOp25
 70
     0
102
RTVSPropertyOp26
 70
     0
102
RTVSPropertyOp27
 70
     0
102
RTVSPropertyOp28
 70
     0
102
RTVSPropertyOp29
 70
     0
102
RTVSPropertyOp30
 70
     0
102
RTVSPropertyOp31
 70
     0
102
RTVSPropertyOp32
 70
     0
102
RTVSPropertyOp33
 70
     0
102
RTVSPropertyOp34
 70
     0
102
RTVSPropertyOp35
 70
     0
102
RTVSPropertyOp36
 70
     0
102
RTVSPropertyOp37
 70
     0
102
RTVSPropertyOp38
 70
     0
102
RTVSPropertyOp39
 70
     0
102
RTVSPropertyOp40
 70
     0
102
RTVSPropertyOp41
 70
     0
102
RTVSPropertyOp42
 70
     0
102
RTVSPropertyOp43
 70
     0
102
RTVSPropertyOp44
 70
     0
102
RTVSPropertyOp45
 70
     0
102
RTVSPropertyOp46
 70
     0
102
RTVSPropertyOp47
 70
     0
102
RTVSPropertyOp48
 70
     0
102
RTVSPropertyOp49
 70
     0
102
RTVSPropertyOp50
 70
     0
102
RTVSPropertyOp51
 70
     0
102
RTVSPropertyOp52
 70
     0
102
RTVSPropertyOp53
 70
     0
102
RTVSPropertyOp54
 70
     0
102
RTVSPropertyOp55
 70
     0
102
RTVSPropertyOp56
 70
     0
102
RTVSPropertyOp57
 70
     0
102
RTVSPost2010Prop28
280
     0
102
RTVSPost2010PropOp28
 70
     0
102
RTVSPost2010Prop29
280
     1
102
RTVSPost2010PropOp29
 70
     0
102
RTVSPost2010Prop30
280
     1
102
RTVSPost2010PropOp30
 70
     0
102
RTVSPost2010Prop31
280
     0
102
RTVSPost2010PropOp31
 70
     0
102
RTVSPost2010Prop32
280
     0
102
RTVSPost2010PropOp32
 70
     0
102
RTVSPost2010Prop33
280
     0
102
RTVSPost2010PropOp33
 70
     0
102
RTVSPost2010Prop34
280
     0
102
RTVSPost2010PropOp34
 70
     0
102
RTVSPost2010Prop35
280
     0
102
RTVSPost2010PropOp35
 70
     0
102
RTVSPost2010Prop36
280
     0
102
RTVSPost2010PropOp36
 70
     0
102
RTVSPost2010Prop37
 90
       50
102
RTVSPost2010PropOp37
 70
     0
102
RTVSPost2010Prop38
140
0.0
102
RTVSPost2010PropOp38
 70
     0
102
RTVSPost2010Prop39
140
1.0
102
RTVSPost2010PropOp39
 70
     0
102
RTVSPost2010Prop40
 90
        0
102
RTVSPost2010PropOp40
 70
     0
102
RTVSPost2010Prop41ColorIndex
 90
       18
102
RTVSPost2010Prop41ColorRGB
 90
        0
102
RTVSPost2010PropOp41
 70
     0
102
RTVSPost2010Prop42
 90
       50
102
RTVSPost2010PropOp42
 70
     0
102
RTVSPost2010Prop43
 90
        3
102
RTVSPost2010PropOp43
 70
     0
102
RTVSPost2010Prop44ColorIndex
 90
        5
102
RTVSPost2010Prop44ColorRGB
 90
      255
102
RTVSPost2010PropOp44
 70
     0
102
RTVSPost2010Prop45
280
     0
102
RTVSPost2010PropOp45
 70
     0
102
RTVSPost2010Prop46
 90
       50
102
RTVSPost2010PropOp46
 70
     0
102
RTVSPost2010Prop47
 90
       50
102
RTVSPost2010PropOp47
 70
     0
102
RTVSPost2010Prop48
 90
       50
102
RTVSPost2010PropOp48
 70
     0
102
RTVSPost2010Prop49
280
     0
102
RTVSPost2010PropOp49
 70
     0
102
RTVSPost2010Prop50
 90
       50
102
RTVSPost2010PropOp50
 70
     0
102
RTVSPost2010Prop51ColorIndex
 90
      256
102
RTVSPost2010Prop51ColorRGB
 90
-16777216
102
RTVSPost2010PropOp51
 70
     0
102
RTVSPost2010Prop52
140
1.0
102
RTVSPost2010PropOp52
 70
     0
102
RTVSPost2010Prop53
 90
        2
102
RTVSPost2010PropOp53
 70
     0
102
RTVSPost2010Prop54
  1
strokes_ogs.tif
102
RTVSPost2010PropOp54
 70
     0
102
RTVSPost2010Prop55
280
     0
102
RTVSPost2010PropOp55
 70
     0
102
RTVSPost2010Prop56
140
1.0
102
RTVSPost2010PropOp56
 70
     0
102
RTVSPost2010Prop57
140
1.0
102
RTVSPost2010PropOp57
 70
     0
  0
XRECORD
  5
309
102
{ACAD_REACTORS
330
308
102
}
330
308
100
AcDbXrecord
280
     1
102
RTVSPropertyOp0
 70
     1
102
RTVSPropertyOp1
 70
     1
102
RTVSPropertyOp2
 70
     1
102
RTVSPropertyOp3
 70
     1
102
RTVSPropertyOp4
 70
     1
102
RTVSPropertyOp5
 70
     1
102
RTVSPropertyOp6
 70
     1
102
RTVSPropertyOp7
 70
     1
102
RTVSPropertyOp8
 70
     1
102
RTVSPropertyOp9
 70
     1
102
RTVSPropertyOp10
 70
     1
102
RTVSPropertyOp11
 70
     1
102
RTVSPropertyOp12
 70
     1
102
RTVSPropertyOp13
 70
     1
102
RTVSPropertyOp14
 70
     1
102
RTVSPropertyOp15
 70
     1
102
RTVSPropertyOp16
 70
     1
102
RTVSPropertyOp17
 70
     1
102
RTVSPropertyOp18
 70
     1
102
RTVSPropertyOp19
 70
     1
102
RTVSPropertyOp20
 70
     1
102
RTVSPropertyOp21
 70
     1
102
RTVSPropertyOp22
 70
     1
102
RTVSPropertyOp23
 70
     1
102
RTVSPropertyOp24
 70
     1
102
RTVSPropertyOp25
 70
     1
102
RTVSPropertyOp26
 70
     1
102
RTVSPropertyOp27
 70
     1
102
RTVSPropertyOp28
 70
     1
102
RTVSPropertyOp29
 70
     1
102
RTVSPropertyOp30
 70
     1
102
RTVSPropertyOp31
 70
     1
102
RTVSPropertyOp32
 70
     1
102
RTVSPropertyOp33
 70
     1
102
RTVSPropertyOp34
 70
     1
102
RTVSPropertyOp35
 70
     1
102
RTVSPropertyOp36
 70
     1
102
RTVSPropertyOp37
 70
     1
102
RTVSPropertyOp38
 70
     1
102
RTVSPropertyOp39
 70
     1
102
RTVSPropertyOp40
 70
     1
102
RTVSPropertyOp41
 70
     1
102
RTVSPropertyOp42
 70
     1
102
RTVSPropertyOp43
 70
     1
102
RTVSPropertyOp44
 70
     1
102
RTVSPropertyOp45
 70
     1
102
RTVSPropertyOp46
 70
     1
102
RTVSPropertyOp47
 70
     1
102
RTVSPropertyOp48
 70
     1
102
RTVSPropertyOp49
 70
     1
102
RTVSPropertyOp50
 70
     1
102
RTVSPropertyOp51
 70
     0
102
RTVSPropertyOp52
 70
     0
102
RTVSPropertyOp53
 70
     1
102
RTVSPropertyOp54
 70
     1
102
RTVSPropertyOp55
 70
     1
102
RTVSPropertyOp56
 70
     1
102
RTVSPropertyOp57
 70
     1
102
RTVSPost2010Prop28
280
     0
102
RTVSPost2010PropOp28
 70
     1
102
RTVSPost2010Prop29
280
     1
102
RTVSPost2010PropOp29
 70
     1
102
RTVSPost2010Prop30
280
     1
102
RTVSPost2010PropOp30
 70
     1
102
RTVSPost2010Prop31
280
     0
102
RTVSPost2010PropOp31
 70
     1
102
RTVSPost2010Prop32
280
     0
102
RTVSPost2010PropOp32
 70
     1
102
RTVSPost2010Prop33
280
     0
102
RTVSPost2010PropOp33
 70
     1
102
RTVSPost2010Prop34
280
     0
102
RTVSPost2010PropOp34
 70
     1
102
RTVSPost2010Prop35
280
     0
102
RTVSPost2010PropOp35
 70
     1
102
RTVSPost2010Prop36
280
     0
102
RTVSPost2010PropOp36
 70
     1
102
RTVSPost2010Prop37
 90
       50
102
RTVSPost2010PropOp37
 70
     1
102
RTVSPost2010Prop38
140
0.0
102
RTVSPost2010PropOp38
 70
     1
102
RTVSPost2010Prop39
140
1.0
102
RTVSPost2010PropOp39
 70
     1
102
RTVSPost2010Prop40
 90
        0
102
RTVSPost2010PropOp40
 70
     1
102
RTVSPost2010Prop41ColorIndex
 90
       18
102
RTVSPost2010Prop41ColorRGB
 90
        0
102
RTVSPost2010PropOp41
 70
     1
102
RTVSPost2010Prop42
 90
       50
102
RTVSPost2010PropOp42
 70
     1
102
RTVSPost2010Prop43
 90
        3
102
RTVSPost2010PropOp43
 70
     1
102
RTVSPost2010Prop44ColorIndex
 90
        5
102
RTVSPost2010Prop44ColorRGB
 90
      255
102
RTVSPost2010PropOp44
 70
     1
102
RTVSPost2010Prop45
280
     0
102
RTVSPost2010PropOp45
 70
     1
102
RTVSPost2010Prop46
 90
       50
102
RTVSPost2010PropOp46
 70
     1
102
RTVSPost2010Prop47
 90
       50
102
RTVSPost2010PropOp47
 70
     1
102
RTVSPost2010Prop48
 90
       50
102
RTVSPost2010PropOp48
 70
     1
102
RTVSPost2010Prop49
280
     0
102
RTVSPost2010PropOp49
 70
     1
102
RTVSPost2010Prop50
 90
       50
102
RTVSPost2010PropOp50
 70
     1
102
RTVSPost2010Prop51ColorIndex
 90
      256
102
RTVSPost2010Prop51ColorRGB
 90
-16777216
102
RTVSPost2010PropOp51
 70
     0
102
RTVSPost2010Prop52
140
1.0
102
RTVSPost2010PropOp52
 70
     0
102
RTVSPost2010Prop53
 90
        2
102
RTVSPost2010PropOp53
 70
     1
102
RTVSPost2010Prop54
  1
strokes_ogs.tif
102
RTVSPost2010PropOp54
 70
     1
102
RTVSPost2010Prop55
280
     0
102
RTVSPost2010PropOp55
 70
     1
102
RTVSPost2010Prop56
140
1.0
102
RTVSPost2010PropOp56
 70
     1
102
RTVSPost2010Prop57
140
1.0
102
RTVSPost2010PropOp57
 70
     1
  0
XRECORD
  5
2ED
102
{ACAD_REACTORS
330
2EC
102
}
330
2EC
100
AcDbXrecord
280
     1
102
RTVSPropertyOp0
 70
     1
102
RTVSPropertyOp1
 70
     1
102
RTVSPropertyOp2
 70
     1
102
RTVSPropertyOp3
 70
     1
102
RTVSPropertyOp4
 70
     1
102
RTVSPropertyOp5
 70
     1
102
RTVSPropertyOp6
 70
     1
102
RTVSPropertyOp7
 70
     1
102
RTVSPropertyOp8
 70
     1
102
RTVSPropertyOp9
 70
     1
102
RTVSPropertyOp10
 70
     1
102
RTVSPropertyOp11
 70
     1
102
RTVSPropertyOp12
 70
     1
102
RTVSPropertyOp13
 70
     1
102
RTVSPropertyOp14
 70
     1
102
RTVSPropertyOp15
 70
     1
102
RTVSPropertyOp16
 70
     1
102
RTVSPropertyOp17
 70
     1
102
RTVSPropertyOp18
 70
     1
102
RTVSPropertyOp19
 70
     1
102
RTVSPropertyOp20
 70
     1
102
RTVSPropertyOp21
 70
     1
102
RTVSPropertyOp22
 70
     1
102
RTVSPropertyOp23
 70
     1
102
RTVSPropertyOp24
 70
     1
102
RTVSPropertyOp25
 70
     1
102
RTVSPropertyOp26
 70
     1
102
RTVSPropertyOp27
 70
     1
102
RTVSPropertyOp28
 70
     1
102
RTVSPropertyOp29
 70
     1
102
RTVSPropertyOp30
 70
     1
102
RTVSPropertyOp31
 70
     1
102
RTVSPropertyOp32
 70
     1
102
RTVSPropertyOp33
 70
     1
102
RTVSPropertyOp34
 70
     1
102
RTVSPropertyOp35
 70
     1
102
RTVSPropertyOp36
 70
     1
102
RTVSPropertyOp37
 70
     1
102
RTVSPropertyOp38
 70
     1
102
RTVSPropertyOp39
 70
     1
102
RTVSPropertyOp40
 70
     1
102
RTVSPropertyOp41
 70
     1
102
RTVSPropertyOp42
 70
     1
102
RTVSPropertyOp43
 70
     1
102
RTVSPropertyOp44
 70
     1
102
RTVSPropertyOp45
 70
     1
102
RTVSPropertyOp46
 70
     1
102
RTVSPropertyOp47
 70
     1
102
RTVSPropertyOp48
 70
     1
102
RTVSPropertyOp49
 70
     1
102
RTVSPropertyOp50
 70
     1
102
RTVSPropertyOp51
 70
     0
102
RTVSPropertyOp52
 70
     0
102
RTVSPropertyOp53
 70
     1
102
RTVSPropertyOp54
 70
     1
102
RTVSPropertyOp55
 70
     1
102
RTVSPropertyOp56
 70
     1
102
RTVSPropertyOp57
 70
     1
102
RTVSPost2010Prop28
280
     0
102
RTVSPost2010PropOp28
 70
     1
102
RTVSPost2010Prop29
280
     1
102
RTVSPost2010PropOp29
 70
     1
102
RTVSPost2010Prop30
280
     1
102
RTVSPost2010PropOp30
 70
     1
102
RTVSPost2010Prop31
280
     0
102
RTVSPost2010PropOp31
 70
     1
102
RTVSPost2010Prop32
280
     0
102
RTVSPost2010PropOp32
 70
     1
102
RTVSPost2010Prop33
280
     0
102
RTVSPost2010PropOp33
 70
     1
102
RTVSPost2010Prop34
280
     0
102
RTVSPost2010PropOp34
 70
     1
102
RTVSPost2010Prop35
280
     0
102
RTVSPost2010PropOp35
 70
     1
102
RTVSPost2010Prop36
280
     0
102
RTVSPost2010PropOp36
 70
     1
102
RTVSPost2010Prop37
 90
       50
102
RTVSPost2010PropOp37
 70
     1
102
RTVSPost2010Prop38
140
0.0
102
RTVSPost2010PropOp38
 70
     1
102
RTVSPost2010Prop39
140
1.0
102
RTVSPost2010PropOp39
 70
     1
102
RTVSPost2010Prop40
 90
        0
102
RTVSPost2010PropOp40
 70
     1
102
RTVSPost2010Prop41ColorIndex
 90
       18
102
RTVSPost2010Prop41ColorRGB
 90
        0
102
RTVSPost2010PropOp41
 70
     1
102
RTVSPost2010Prop42
 90
       50
102
RTVSPost2010PropOp42
 70
     1
102
RTVSPost2010Prop43
 90
        3
102
RTVSPost2010PropOp43
 70
     1
102
RTVSPost2010Prop44ColorIndex
 90
        5
102
RTVSPost2010Prop44ColorRGB
 90
      255
102
RTVSPost2010PropOp44
 70
     1
102
RTVSPost2010Prop45
280
     0
102
RTVSPost2010PropOp45
 70
     1
102
RTVSPost2010Prop46
 90
       50
102
RTVSPost2010PropOp46
 70
     1
102
RTVSPost2010Prop47
 90
       50
102
RTVSPost2010PropOp47
 70
     1
102
RTVSPost2010Prop48
 90
       50
102
RTVSPost2010PropOp48
 70
     1
102
RTVSPost2010Prop49
280
     0
102
RTVSPost2010PropOp49
 70
     1
102
RTVSPost2010Prop50
 90
       50
102
RTVSPost2010PropOp50
 70
     1
102
RTVSPost2010Prop51ColorIndex
 90
      256
102
RTVSPost2010Prop51ColorRGB
 90
-16777216
102
RTVSPost2010PropOp51
 70
     0
102
RTVSPost2010Prop52
140
1.0
102
RTVSPost2010PropOp52
 70
     0
102
RTVSPost2010Prop53
 90
        2
102
RTVSPost2010PropOp53
 70
     1
102
RTVSPost2010Prop54
  1
strokes_ogs.tif
102
RTVSPost2010PropOp54
 70
     1
102
RTVSPost2010Prop55
280
     0
102
RTVSPost2010PropOp55
 70
     1
102
RTVSPost2010Prop56
140
1.0
102
RTVSPost2010PropOp56
 70
     1
102
RTVSPost2010Prop57
140
1.0
102
RTVSPost2010PropOp57
 70
     1
  0
XRECORD
  5
2EF
102
{ACAD_REACTORS
330
2EE
102
}
330
2EE
100
AcDbXrecord
280
     1
102
RTVSPropertyOp0
 70
     1
102
RTVSPropertyOp1
 70
     1
102
RTVSPropertyOp2
 70
     1
102
RTVSPropertyOp3
 70
     1
102
RTVSPropertyOp4
 70
     1
102
RTVSPropertyOp5
 70
     1
102
RTVSPropertyOp6
 70
     1
102
RTVSPropertyOp7
 70
     1
102
RTVSPropertyOp8
 70
     1
102
RTVSPropertyOp9
 70
     1
102
RTVSPropertyOp10
 70
     1
102
RTVSPropertyOp11
 70
     1
102
RTVSPropertyOp12
 70
     1
102
RTVSPropertyOp13
 70
     1
102
RTVSPropertyOp14
 70
     1
102
RTVSPropertyOp15
 70
     1
102
RTVSPropertyOp16
 70
     1
102
RTVSPropertyOp17
 70
     1
102
RTVSPropertyOp18
 70
     1
102
RTVSPropertyOp19
 70
     1
102
RTVSPropertyOp20
 70
     1
102
RTVSPropertyOp21
 70
     1
102
RTVSPropertyOp22
 70
     1
102
RTVSPropertyOp23
 70
     1
102
RTVSPropertyOp24
 70
     1
102
RTVSPropertyOp25
 70
     1
102
RTVSPropertyOp26
 70
     1
102
RTVSPropertyOp27
 70
     1
102
RTVSPropertyOp28
 70
     1
102
RTVSPropertyOp29
 70
     1
102
RTVSPropertyOp30
 70
     1
102
RTVSPropertyOp31
 70
     1
102
RTVSPropertyOp32
 70
     1
102
RTVSPropertyOp33
 70
     1
102
RTVSPropertyOp34
 70
     1
102
RTVSPropertyOp35
 70
     1
102
RTVSPropertyOp36
 70
     1
102
RTVSPropertyOp37
 70
     1
102
RTVSPropertyOp38
 70
     1
102
RTVSPropertyOp39
 70
     1
102
RTVSPropertyOp40
 70
     1
102
RTVSPropertyOp41
 70
     1
102
RTVSPropertyOp42
 70
     1
102
RTVSPropertyOp43
 70
     1
102
RTVSPropertyOp44
 70
     1
102
RTVSPropertyOp45
 70
     1
102
RTVSPropertyOp46
 70
     1
102
RTVSPropertyOp47
 70
     1
102
RTVSPropertyOp48
 70
     1
102
RTVSPropertyOp49
 70
     1
102
RTVSPropertyOp50
 70
     1
102
RTVSPropertyOp51
 70
     0
102
RTVSPropertyOp52
 70
     0
102
RTVSPropertyOp53
 70
     1
102
RTVSPropertyOp54
 70
     1
102
RTVSPropertyOp55
 70
     1
102
RTVSPropertyOp56
 70
     1
102
RTVSPropertyOp57
 70
     1
102
RTVSPost2010Prop28
280
     0
102
RTVSPost2010PropOp28
 70
     1
102
RTVSPost2010Prop29
280
     1
102
RTVSPost2010PropOp29
 70
     1
102
RTVSPost2010Prop30
280
     1
102
RTVSPost2010PropOp30
 70
     1
102
RTVSPost2010Prop31
280
     0
102
RTVSPost2010PropOp31
 70
     1
102
RTVSPost2010Prop32
280
     0
102
RTVSPost2010PropOp32
 70
     1
102
RTVSPost2010Prop33
280
     0
102
RTVSPost2010PropOp33
 70
     1
102
RTVSPost2010Prop34
280
     0
102
RTVSPost2010PropOp34
 70
     1
102
RTVSPost2010Prop35
280
     0
102
RTVSPost2010PropOp35
 70
     1
102
RTVSPost2010Prop36
280
     0
102
RTVSPost2010PropOp36
 70
     1
102
RTVSPost2010Prop37
 90
       50
102
RTVSPost2010PropOp37
 70
     1
102
RTVSPost2010Prop38
140
0.0
102
RTVSPost2010PropOp38
 70
     1
102
RTVSPost2010Prop39
140
1.0
102
RTVSPost2010PropOp39
 70
     1
102
RTVSPost2010Prop40
 90
        0
102
RTVSPost2010PropOp40
 70
     1
102
RTVSPost2010Prop41ColorIndex
 90
       18
102
RTVSPost2010Prop41ColorRGB
 90
        0
102
RTVSPost2010PropOp41
 70
     1
102
RTVSPost2010Prop42
 90
       50
102
RTVSPost2010PropOp42
 70
     1
102
RTVSPost2010Prop43
 90
        3
102
RTVSPost2010PropOp43
 70
     1
102
RTVSPost2010Prop44ColorIndex
 90
        5
102
RTVSPost2010Prop44ColorRGB
 90
      255
102
RTVSPost2010PropOp44
 70
     1
102
RTVSPost2010Prop45
280
     0
102
RTVSPost2010PropOp45
 70
     1
102
RTVSPost2010Prop46
 90
       50
102
RTVSPost2010PropOp46
 70
     1
102
RTVSPost2010Prop47
 90
       50
102
RTVSPost2010PropOp47
 70
     1
102
RTVSPost2010Prop48
 90
       50
102
RTVSPost2010PropOp48
 70
     1
102
RTVSPost2010Prop49
280
     0
102
RTVSPost2010PropOp49
 70
     1
102
RTVSPost2010Prop50
 90
       50
102
RTVSPost2010PropOp50
 70
     1
102
RTVSPost2010Prop51ColorIndex
 90
      256
102
RTVSPost2010Prop51ColorRGB
 90
-16777216
102
RTVSPost2010PropOp51
 70
     0
102
RTVSPost2010Prop52
140
1.0
102
RTVSPost2010PropOp52
 70
     0
102
RTVSPost2010Prop53
 90
        2
102
RTVSPost2010PropOp53
 70
     1
102
RTVSPost2010Prop54
  1
strokes_ogs.tif
102
RTVSPost2010PropOp54
 70
     1
102
RTVSPost2010Prop55
280
     0
102
RTVSPost2010PropOp55
 70
     1
102
RTVSPost2010Prop56
140
1.0
102
RTVSPost2010PropOp56
 70
     1
102
RTVSPost2010Prop57
140
1.0
102
RTVSPost2010PropOp57
 70
     1
  0
XRECORD
  5
2F1
102
{ACAD_REACTORS
330
2F0
102
}
330
2F0
100
AcDbXrecord
280
     1
102
RTVSPropertyOp0
 70
     1
102
RTVSPropertyOp1
 70
     1
102
RTVSPropertyOp2
 70
     1
102
RTVSPropertyOp3
 70
     1
102
RTVSPropertyOp4
 70
     1
102
RTVSPropertyOp5
 70
     1
102
RTVSPropertyOp6
 70
     1
102
RTVSPropertyOp7
 70
     1
102
RTVSPropertyOp8
 70
     1
102
RTVSPropertyOp9
 70
     1
102
RTVSPropertyOp10
 70
     1
102
RTVSPropertyOp11
 70
     1
102
RTVSPropertyOp12
 70
     1
102
RTVSPropertyOp13
 70
     1
102
RTVSPropertyOp14
 70
     1
102
RTVSPropertyOp15
 70
     1
102
RTVSPropertyOp16
 70
     1
102
RTVSPropertyOp17
 70
     1
102
RTVSPropertyOp18
 70
     1
102
RTVSPropertyOp19
 70
     1
102
RTVSPropertyOp20
 70
     1
102
RTVSPropertyOp21
 70
     1
102
RTVSPropertyOp22
 70
     1
102
RTVSPropertyOp23
 70
     1
102
RTVSPropertyOp24
 70
     1
102
RTVSPropertyOp25
 70
     1
102
RTVSPropertyOp26
 70
     1
102
RTVSPropertyOp27
 70
     1
102
RTVSPropertyOp28
 70
     1
102
RTVSPropertyOp29
 70
     1
102
RTVSPropertyOp30
 70
     1
102
RTVSPropertyOp31
 70
     1
102
RTVSPropertyOp32
 70
     1
102
RTVSPropertyOp33
 70
     1
102
RTVSPropertyOp34
 70
     1
102
RTVSPropertyOp35
 70
     1
102
RTVSPropertyOp36
 70
     1
102
RTVSPropertyOp37
 70
     1
102
RTVSPropertyOp38
 70
     1
102
RTVSPropertyOp39
 70
     1
102
RTVSPropertyOp40
 70
     1
102
RTVSPropertyOp41
 70
     1
102
RTVSPropertyOp42
 70
     1
102
RTVSPropertyOp43
 70
     1
102
RTVSPropertyOp44
 70
     1
102
RTVSPropertyOp45
 70
     1
102
RTVSPropertyOp46
 70
     1
102
RTVSPropertyOp47
 70
     1
102
RTVSPropertyOp48
 70
     1
102
RTVSPropertyOp49
 70
     1
102
RTVSPropertyOp50
 70
     1
102
RTVSPropertyOp51
 70
     0
102
RTVSPropertyOp52
 70
     0
102
RTVSPropertyOp53
 70
     1
102
RTVSPropertyOp54
 70
     1
102
RTVSPropertyOp55
 70
     1
102
RTVSPropertyOp56
 70
     1
102
RTVSPropertyOp57
 70
     1
102
RTVSPost2010Prop28
280
     0
102
RTVSPost2010PropOp28
 70
     1
102
RTVSPost2010Prop29
280
     1
102
RTVSPost2010PropOp29
 70
     1
102
RTVSPost2010Prop30
280
     1
102
RTVSPost2010PropOp30
 70
     1
102
RTVSPost2010Prop31
280
     0
102
RTVSPost2010PropOp31
 70
     1
102
RTVSPost2010Prop32
280
     0
102
RTVSPost2010PropOp32
 70
     1
102
RTVSPost2010Prop33
280
     0
102
RTVSPost2010PropOp33
 70
     1
102
RTVSPost2010Prop34
280
     0
102
RTVSPost2010PropOp34
 70
     1
102
RTVSPost2010Prop35
280
     0
102
RTVSPost2010PropOp35
 70
     1
102
RTVSPost2010Prop36
280
     0
102
RTVSPost2010PropOp36
 70
     1
102
RTVSPost2010Prop37
 90
       50
102
RTVSPost2010PropOp37
 70
     1
102
RTVSPost2010Prop38
140
0.0
102
RTVSPost2010PropOp38
 70
     1
102
RTVSPost2010Prop39
140
1.0
102
RTVSPost2010PropOp39
 70
     1
102
RTVSPost2010Prop40
 90
        0
102
RTVSPost2010PropOp40
 70
     1
102
RTVSPost2010Prop41ColorIndex
 90
       18
102
RTVSPost2010Prop41ColorRGB
 90
        0
102
RTVSPost2010PropOp41
 70
     1
102
RTVSPost2010Prop42
 90
       50
102
RTVSPost2010PropOp42
 70
     1
102
RTVSPost2010Prop43
 90
        3
102
RTVSPost2010PropOp43
 70
     1
102
RTVSPost2010Prop44ColorIndex
 90
        5
102
RTVSPost2010Prop44ColorRGB
 90
      255
102
RTVSPost2010PropOp44
 70
     1
102
RTVSPost2010Prop45
280
     0
102
RTVSPost2010PropOp45
 70
     1
102
RTVSPost2010Prop46
 90
       50
102
RTVSPost2010PropOp46
 70
     1
102
RTVSPost2010Prop47
 90
       50
102
RTVSPost2010PropOp47
 70
     1
102
RTVSPost2010Prop48
 90
       50
102
RTVSPost2010PropOp48
 70
     1
102
RTVSPost2010Prop49
280
     0
102
RTVSPost2010PropOp49
 70
     1
102
RTVSPost2010Prop50
 90
       50
102
RTVSPost2010PropOp50
 70
     1
102
RTVSPost2010Prop51ColorIndex
 90
      256
102
RTVSPost2010Prop51ColorRGB
 90
-16777216
102
RTVSPost2010PropOp51
 70
     0
102
RTVSPost2010Prop52
140
1.0
102
RTVSPost2010PropOp52
 70
     0
102
RTVSPost2010Prop53
 90
        2
102
RTVSPost2010PropOp53
 70
     1
102
RTVSPost2010Prop54
  1
strokes_ogs.tif
102
RTVSPost2010PropOp54
 70
     1
102
RTVSPost2010Prop55
280
     0
102
RTVSPost2010PropOp55
 70
     1
102
RTVSPost2010Prop56
140
1.0
102
RTVSPost2010PropOp56
 70
     1
102
RTVSPost2010Prop57
140
1.0
102
RTVSPost2010PropOp57
 70
     1
  0
XRECORD
  5
2F3
102
{ACAD_REACTORS
330
2F2
102
}
330
2F2
100
AcDbXrecord
280
     1
102
RTVSPropertyOp0
 70
     1
102
RTVSPropertyOp1
 70
     1
102
RTVSPropertyOp2
 70
     1
102
RTVSPropertyOp3
 70
     1
102
RTVSPropertyOp4
 70
     1
102
RTVSPropertyOp5
 70
     1
102
RTVSPropertyOp6
 70
     1
102
RTVSPropertyOp7
 70
     1
102
RTVSPropertyOp8
 70
     1
102
RTVSPropertyOp9
 70
     1
102
RTVSPropertyOp10
 70
     1
102
RTVSPropertyOp11
 70
     1
102
RTVSPropertyOp12
 70
     1
102
RTVSPropertyOp13
 70
     1
102
RTVSPropertyOp14
 70
     1
102
RTVSPropertyOp15
 70
     1
102
RTVSPropertyOp16
 70
     1
102
RTVSPropertyOp17
 70
     1
102
RTVSPropertyOp18
 70
     1
102
RTVSPropertyOp19
 70
     1
102
RTVSPropertyOp20
 70
     1
102
RTVSPropertyOp21
 70
     1
102
RTVSPropertyOp22
 70
     1
102
RTVSPropertyOp23
 70
     1
102
RTVSPropertyOp24
 70
     1
102
RTVSPropertyOp25
 70
     1
102
RTVSPropertyOp26
 70
     1
102
RTVSPropertyOp27
 70
     1
102
RTVSPropertyOp28
 70
     1
102
RTVSPropertyOp29
 70
     1
102
RTVSPropertyOp30
 70
     1
102
RTVSPropertyOp31
 70
     1
102
RTVSPropertyOp32
 70
     1
102
RTVSPropertyOp33
 70
     1
102
RTVSPropertyOp34
 70
     1
102
RTVSPropertyOp35
 70
     1
102
RTVSPropertyOp36
 70
     1
102
RTVSPropertyOp37
 70
     1
102
RTVSPropertyOp38
 70
     1
102
RTVSPropertyOp39
 70
     1
102
RTVSPropertyOp40
 70
     1
102
RTVSPropertyOp41
 70
     1
102
RTVSPropertyOp42
 70
     1
102
RTVSPropertyOp43
 70
     1
102
RTVSPropertyOp44
 70
     1
102
RTVSPropertyOp45
 70
     1
102
RTVSPropertyOp46
 70
     1
102
RTVSPropertyOp47
 70
     1
102
RTVSPropertyOp48
 70
     1
102
RTVSPropertyOp49
 70
     1
102
RTVSPropertyOp50
 70
     1
102
RTVSPropertyOp51
 70
     0
102
RTVSPropertyOp52
 70
     0
102
RTVSPropertyOp53
 70
     1
102
RTVSPropertyOp54
 70
     1
102
RTVSPropertyOp55
 70
     1
102
RTVSPropertyOp56
 70
     1
102
RTVSPropertyOp57
 70
     1
102
RTVSPost2010Prop28
280
     0
102
RTVSPost2010PropOp28
 70
     1
102
RTVSPost2010Prop29
280
     1
102
RTVSPost2010PropOp29
 70
     1
102
RTVSPost2010Prop30
280
     1
102
RTVSPost2010PropOp30
 70
     1
102
RTVSPost2010Prop31
280
     0
102
RTVSPost2010PropOp31
 70
     1
102
RTVSPost2010Prop32
280
     0
102
RTVSPost2010PropOp32
 70
     1
102
RTVSPost2010Prop33
280
     0
102
RTVSPost2010PropOp33
 70
     1
102
RTVSPost2010Prop34
280
     0
102
RTVSPost2010PropOp34
 70
     1
102
RTVSPost2010Prop35
280
     0
102
RTVSPost2010PropOp35
 70
     1
102
RTVSPost2010Prop36
280
     0
102
RTVSPost2010PropOp36
 70
     1
102
RTVSPost2010Prop37
 90
       50
102
RTVSPost2010PropOp37
 70
     1
102
RTVSPost2010Prop38
140
0.0
102
RTVSPost2010PropOp38
 70
     1
102
RTVSPost2010Prop39
140
1.0
102
RTVSPost2010PropOp39
 70
     1
102
RTVSPost2010Prop40
 90
        0
102
RTVSPost2010PropOp40
 70
     1
102
RTVSPost2010Prop41ColorIndex
 90
       18
102
RTVSPost2010Prop41ColorRGB
 90
        0
102
RTVSPost2010PropOp41
 70
     1
102
RTVSPost2010Prop42
 90
       50
102
RTVSPost2010PropOp42
 70
     1
102
RTVSPost2010Prop43
 90
        3
102
RTVSPost2010PropOp43
 70
     1
102
RTVSPost2010Prop44ColorIndex
 90
        5
102
RTVSPost2010Prop44ColorRGB
 90
      255
102
RTVSPost2010PropOp44
 70
     1
102
RTVSPost2010Prop45
280
     0
102
RTVSPost2010PropOp45
 70
     1
102
RTVSPost2010Prop46
 90
       50
102
RTVSPost2010PropOp46
 70
     1
102
RTVSPost2010Prop47
 90
       50
102
RTVSPost2010PropOp47
 70
     1
102
RTVSPost2010Prop48
 90
       50
102
RTVSPost2010PropOp48
 70
     1
102
RTVSPost2010Prop49
280
     0
102
RTVSPost2010PropOp49
 70
     1
102
RTVSPost2010Prop50
 90
       50
102
RTVSPost2010PropOp50
 70
     1
102
RTVSPost2010Prop51ColorIndex
 90
      256
102
RTVSPost2010Prop51ColorRGB
 90
-16777216
102
RTVSPost2010PropOp51
 70
     0
102
RTVSPost2010Prop52
140
1.0
102
RTVSPost2010PropOp52
 70
     0
102
RTVSPost2010Prop53
 90
        2
102
RTVSPost2010PropOp53
 70
     1
102
RTVSPost2010Prop54
  1
strokes_ogs.tif
102
RTVSPost2010PropOp54
 70
     1
102
RTVSPost2010Prop55
280
     0
102
RTVSPost2010PropOp55
 70
     1
102
RTVSPost2010Prop56
140
1.0
102
RTVSPost2010PropOp56
 70
     1
102
RTVSPost2010Prop57
140
1.0
102
RTVSPost2010PropOp57
 70
     1
  0
XRECORD
  5
2F9
102
{ACAD_REACTORS
330
2F8
102
}
330
2F8
100
AcDbXrecord
280
     1
102
RTVSPropertyOp0
 70
     1
102
RTVSPropertyOp1
 70
     1
102
RTVSPropertyOp2
 70
     1
102
RTVSPropertyOp3
 70
     1
102
RTVSPropertyOp4
 70
     1
102
RTVSPropertyOp5
 70
     1
102
RTVSPropertyOp6
 70
     1
102
RTVSPropertyOp7
 70
     1
102
RTVSPropertyOp8
 70
     1
102
RTVSPropertyOp9
 70
     1
102
RTVSPropertyOp10
 70
     1
102
RTVSPropertyOp11
 70
     1
102
RTVSPropertyOp12
 70
     1
102
RTVSPropertyOp13
 70
     1
102
RTVSPropertyOp14
 70
     1
102
RTVSPropertyOp15
 70
     1
102
RTVSPropertyOp16
 70
     1
102
RTVSPropertyOp17
 70
     1
102
RTVSPropertyOp18
 70
     1
102
RTVSPropertyOp19
 70
     1
102
RTVSPropertyOp20
 70
     1
102
RTVSPropertyOp21
 70
     1
102
RTVSPropertyOp22
 70
     1
102
RTVSPropertyOp23
 70
     1
102
RTVSPropertyOp24
 70
     1
102
RTVSPropertyOp25
 70
     1
102
RTVSPropertyOp26
 70
     1
102
RTVSPropertyOp27
 70
     1
102
RTVSPropertyOp28
 70
     1
102
RTVSPropertyOp29
 70
     1
102
RTVSPropertyOp30
 70
     1
102
RTVSPropertyOp31
 70
     1
102
RTVSPropertyOp32
 70
     1
102
RTVSPropertyOp33
 70
     1
102
RTVSPropertyOp34
 70
     1
102
RTVSPropertyOp35
 70
     1
102
RTVSPropertyOp36
 70
     1
102
RTVSPropertyOp37
 70
     1
102
RTVSPropertyOp38
 70
     1
102
RTVSPropertyOp39
 70
     1
102
RTVSPropertyOp40
 70
     1
102
RTVSPropertyOp41
 70
     1
102
RTVSPropertyOp42
 70
     1
102
RTVSPropertyOp43
 70
     1
102
RTVSPropertyOp44
 70
     1
102
RTVSPropertyOp45
 70
     1
102
RTVSPropertyOp46
 70
     1
102
RTVSPropertyOp47
 70
     1
102
RTVSPropertyOp48
 70
     1
102
RTVSPropertyOp49
 70
     1
102
RTVSPropertyOp50
 70
     1
102
RTVSPropertyOp51
 70
     0
102
RTVSPropertyOp52
 70
     0
102
RTVSPropertyOp53
 70
     1
102
RTVSPropertyOp54
 70
     1
102
RTVSPropertyOp55
 70
     1
102
RTVSPropertyOp56
 70
     1
102
RTVSPropertyOp57
 70
     1
102
RTVSPost2010Prop28
280
     0
102
RTVSPost2010PropOp28
 70
     1
102
RTVSPost2010Prop29
280
     1
102
RTVSPost2010PropOp29
 70
     1
102
RTVSPost2010Prop30
280
     1
102
RTVSPost2010PropOp30
 70
     1
102
RTVSPost2010Prop31
280
     0
102
RTVSPost2010PropOp31
 70
     1
102
RTVSPost2010Prop32
280
     0
102
RTVSPost2010PropOp32
 70
     1
102
RTVSPost2010Prop33
280
     0
102
RTVSPost2010PropOp33
 70
     1
102
RTVSPost2010Prop34
280
     0
102
RTVSPost2010PropOp34
 70
     1
102
RTVSPost2010Prop35
280
     0
102
RTVSPost2010PropOp35
 70
     1
102
RTVSPost2010Prop36
280
     0
102
RTVSPost2010PropOp36
 70
     1
102
RTVSPost2010Prop37
 90
       50
102
RTVSPost2010PropOp37
 70
     1
102
RTVSPost2010Prop38
140
0.0
102
RTVSPost2010PropOp38
 70
     1
102
RTVSPost2010Prop39
140
1.0
102
RTVSPost2010PropOp39
 70
     1
102
RTVSPost2010Prop40
 90
        0
102
RTVSPost2010PropOp40
 70
     1
102
RTVSPost2010Prop41ColorIndex
 90
       18
102
RTVSPost2010Prop41ColorRGB
 90
        0
102
RTVSPost2010PropOp41
 70
     1
102
RTVSPost2010Prop42
 90
       50
102
RTVSPost2010PropOp42
 70
     1
102
RTVSPost2010Prop43
 90
        3
102
RTVSPost2010PropOp43
 70
     1
102
RTVSPost2010Prop44ColorIndex
 90
        5
102
RTVSPost2010Prop44ColorRGB
 90
      255
102
RTVSPost2010PropOp44
 70
     1
102
RTVSPost2010Prop45
280
     0
102
RTVSPost2010PropOp45
 70
     1
102
RTVSPost2010Prop46
 90
       50
102
RTVSPost2010PropOp46
 70
     1
102
RTVSPost2010Prop47
 90
       50
102
RTVSPost2010PropOp47
 70
     1
102
RTVSPost2010Prop48
 90
       50
102
RTVSPost2010PropOp48
 70
     1
102
RTVSPost2010Prop49
280
     0
102
RTVSPost2010PropOp49
 70
     1
102
RTVSPost2010Prop50
 90
       50
102
RTVSPost2010PropOp50
 70
     1
102
RTVSPost2010Prop51ColorIndex
 90
      256
102
RTVSPost2010Prop51ColorRGB
 90
-16777216
102
RTVSPost2010PropOp51
 70
     0
102
RTVSPost2010Prop52
140
1.0
102
RTVSPost2010PropOp52
 70
     0
102
RTVSPost2010Prop53
 90
        2
102
RTVSPost2010PropOp53
 70
     1
102
RTVSPost2010Prop54
  1
strokes_ogs.tif
102
RTVSPost2010PropOp54
 70
     1
102
RTVSPost2010Prop55
280
     0
102
RTVSPost2010PropOp55
 70
     1
102
RTVSPost2010Prop56
140
1.0
102
RTVSPost2010PropOp56
 70
     1
102
RTVSPost2010Prop57
140
1.0
102
RTVSPost2010PropOp57
 70
     1
  0
XRECORD
  5
30D
102
{ACAD_REACTORS
330
30C
102
}
330
30C
100
AcDbXrecord
280
     1
102
RTVSPropertyOp0
 70
     0
102
RTVSPropertyOp1
 70
     0
102
RTVSPropertyOp2
 70
     0
102
RTVSPropertyOp3
 70
     0
102
RTVSPropertyOp4
 70
     0
102
RTVSPropertyOp5
 70
     0
102
RTVSPropertyOp6
 70
     0
102
RTVSPropertyOp7
 70
     0
102
RTVSPropertyOp8
 70
     0
102
RTVSPropertyOp9
 70
     0
102
RTVSPropertyOp10
 70
     0
102
RTVSPropertyOp11
 70
     0
102
RTVSPropertyOp12
 70
     0
102
RTVSPropertyOp13
 70
     0
102
RTVSPropertyOp14
 70
     2
102
RTVSPropertyOp15
 70
     0
102
RTVSPropertyOp16
 70
     0
102
RTVSPropertyOp17
 70
     0
102
RTVSPropertyOp18
 70
     0
102
RTVSPropertyOp19
 70
     0
102
RTVSPropertyOp20
 70
     0
102
RTVSPropertyOp21
 70
     0
102
RTVSPropertyOp22
 70
     0
102
RTVSPropertyOp23
 70
     0
102
RTVSPropertyOp24
 70
     0
102
RTVSPropertyOp25
 70
     0
102
RTVSPropertyOp26
 70
     0
102
RTVSPropertyOp27
 70
     0
102
RTVSPropertyOp28
 70
     0
102
RTVSPropertyOp29
 70
     0
102
RTVSPropertyOp30
 70
     0
102
RTVSPropertyOp31
 70
     0
102
RTVSPropertyOp32
 70
     0
102
RTVSPropertyOp33
 70
     0
102
RTVSPropertyOp34
 70
     0
102
RTVSPropertyOp35
 70
     0
102
RTVSPropertyOp36
 70
     0
102
RTVSPropertyOp37
 70
     0
102
RTVSPropertyOp38
 70
     0
102
RTVSPropertyOp39
 70
     0
102
RTVSPropertyOp40
 70
     0
102
RTVSPropertyOp41
 70
     0
102
RTVSPropertyOp42
 70
     0
102
RTVSPropertyOp43
 70
     0
102
RTVSPropertyOp44
 70
     0
102
RTVSPropertyOp45
 70
     0
102
RTVSPropertyOp46
 70
     0
102
RTVSPropertyOp47
 70
     0
102
RTVSPropertyOp48
 70
     0
102
RTVSPropertyOp49
 70
     0
102
RTVSPropertyOp50
 70
     0
102
RTVSPropertyOp51
 70
     0
102
RTVSPropertyOp52
 70
     0
102
RTVSPropertyOp53
 70
     0
102
RTVSPropertyOp54
 70
     0
102
RTVSPropertyOp55
 70
     0
102
RTVSPropertyOp56
 70
     0
102
RTVSPropertyOp57
 70
     0
102
RTVSPost2010Prop28
280
     0
102
RTVSPost2010PropOp28
 70
     0
102
RTVSPost2010Prop29
280
     1
102
RTVSPost2010PropOp29
 70
     0
102
RTVSPost2010Prop30
280
     1
102
RTVSPost2010PropOp30
 70
     0
102
RTVSPost2010Prop31
280
     0
102
RTVSPost2010PropOp31
 70
     0
102
RTVSPost2010Prop32
280
     0
102
RTVSPost2010PropOp32
 70
     0
102
RTVSPost2010Prop33
280
     0
102
RTVSPost2010PropOp33
 70
     0
102
RTVSPost2010Prop34
280
     0
102
RTVSPost2010PropOp34
 70
     0
102
RTVSPost2010Prop35
280
     0
102
RTVSPost2010PropOp35
 70
     0
102
RTVSPost2010Prop36
280
     0
102
RTVSPost2010PropOp36
 70
     0
102
RTVSPost2010Prop37
 90
       50
102
RTVSPost2010PropOp37
 70
     0
102
RTVSPost2010Prop38
140
0.0
102
RTVSPost2010PropOp38
 70
     0
102
RTVSPost2010Prop39
140
1.0
102
RTVSPost2010PropOp39
 70
     0
102
RTVSPost2010Prop40
 90
        0
102
RTVSPost2010PropOp40
 70
     0
102
RTVSPost2010Prop41ColorIndex
 90
       18
102
RTVSPost2010Prop41ColorRGB
 90
        0
102
RTVSPost2010PropOp41
 70
     0
102
RTVSPost2010Prop42
 90
       50
102
RTVSPost2010PropOp42
 70
     0
102
RTVSPost2010Prop43
 90
        3
102
RTVSPost2010PropOp43
 70
     0
102
RTVSPost2010Prop44ColorIndex
 90
        5
102
RTVSPost2010Prop44ColorRGB
 90
      255
102
RTVSPost2010PropOp44
 70
     0
102
RTVSPost2010Prop45
280
     0
102
RTVSPost2010PropOp45
 70
     0
102
RTVSPost2010Prop46
 90
       50
102
RTVSPost2010PropOp46
 70
     0
102
RTVSPost2010Prop47
 90
       50
102
RTVSPost2010PropOp47
 70
     0
102
RTVSPost2010Prop48
 90
       50
102
RTVSPost2010PropOp48
 70
     0
102
RTVSPost2010Prop49
280
     0
102
RTVSPost2010PropOp49
 70
     0
102
RTVSPost2010Prop50
 90
       50
102
RTVSPost2010PropOp50
 70
     0
102
RTVSPost2010Prop51ColorIndex
 90
      256
102
RTVSPost2010Prop51ColorRGB
 90
-16777216
102
RTVSPost2010PropOp51
 70
     0
102
RTVSPost2010Prop52
140
1.0
102
RTVSPost2010PropOp52
 70
     0
102
RTVSPost2010Prop53
 90
        2
102
RTVSPost2010PropOp53
 70
     0
102
RTVSPost2010Prop54
  1
strokes_ogs.tif
102
RTVSPost2010PropOp54
 70
     0
102
RTVSPost2010Prop55
280
     0
102
RTVSPost2010PropOp55
 70
     0
102
RTVSPost2010Prop56
140
1.0
102
RTVSPost2010PropOp56
 70
     0
102
RTVSPost2010Prop57
140
1.0
102
RTVSPost2010PropOp57
 70
     0
  0
XRECORD
  5
307
102
{ACAD_REACTORS
330
306
102
}
330
306
100
AcDbXrecord
280
     1
102
RTVSPropertyOp0
 70
     1
102
RTVSPropertyOp1
 70
     1
102
RTVSPropertyOp2
 70
     1
102
RTVSPropertyOp3
 70
     1
102
RTVSPropertyOp4
 70
     1
102
RTVSPropertyOp5
 70
     1
102
RTVSPropertyOp6
 70
     1
102
RTVSPropertyOp7
 70
     1
102
RTVSPropertyOp8
 70
     1
102
RTVSPropertyOp9
 70
     1
102
RTVSPropertyOp10
 70
     1
102
RTVSPropertyOp11
 70
     1
102
RTVSPropertyOp12
 70
     1
102
RTVSPropertyOp13
 70
     1
102
RTVSPropertyOp14
 70
     1
102
RTVSPropertyOp15
 70
     1
102
RTVSPropertyOp16
 70
     1
102
RTVSPropertyOp17
 70
     1
102
RTVSPropertyOp18
 70
     1
102
RTVSPropertyOp19
 70
     1
102
RTVSPropertyOp20
 70
     1
102
RTVSPropertyOp21
 70
     1
102
RTVSPropertyOp22
 70
     1
102
RTVSPropertyOp23
 70
     1
102
RTVSPropertyOp24
 70
     1
102
RTVSPropertyOp25
 70
     1
102
RTVSPropertyOp26
 70
     1
102
RTVSPropertyOp27
 70
     1
102
RTVSPropertyOp28
 70
     1
102
RTVSPropertyOp29
 70
     1
102
RTVSPropertyOp30
 70
     1
102
RTVSPropertyOp31
 70
     1
102
RTVSPropertyOp32
 70
     1
102
RTVSPropertyOp33
 70
     1
102
RTVSPropertyOp34
 70
     1
102
RTVSPropertyOp35
 70
     1
102
RTVSPropertyOp36
 70
     1
102
RTVSPropertyOp37
 70
     1
102
RTVSPropertyOp38
 70
     1
102
RTVSPropertyOp39
 70
     1
102
RTVSPropertyOp40
 70
     1
102
RTVSPropertyOp41
 70
     1
102
RTVSPropertyOp42
 70
     1
102
RTVSPropertyOp43
 70
     1
102
RTVSPropertyOp44
 70
     1
102
RTVSPropertyOp45
 70
     1
102
RTVSPropertyOp46
 70
     1
102
RTVSPropertyOp47
 70
     1
102
RTVSPropertyOp48
 70
     1
102
RTVSPropertyOp49
 70
     1
102
RTVSPropertyOp50
 70
     1
102
RTVSPropertyOp51
 70
     0
102
RTVSPropertyOp52
 70
     0
102
RTVSPropertyOp53
 70
     1
102
RTVSPropertyOp54
 70
     1
102
RTVSPropertyOp55
 70
     1
102
RTVSPropertyOp56
 70
     1
102
RTVSPropertyOp57
 70
     1
102
RTVSPost2010Prop28
280
     0
102
RTVSPost2010PropOp28
 70
     1
102
RTVSPost2010Prop29
280
     1
102
RTVSPost2010PropOp29
 70
     1
102
RTVSPost2010Prop30
280
     1
102
RTVSPost2010PropOp30
 70
     1
102
RTVSPost2010Prop31
280
     0
102
RTVSPost2010PropOp31
 70
     1
102
RTVSPost2010Prop32
280
     0
102
RTVSPost2010PropOp32
 70
     1
102
RTVSPost2010Prop33
280
     0
102
RTVSPost2010PropOp33
 70
     1
102
RTVSPost2010Prop34
280
     0
102
RTVSPost2010PropOp34
 70
     1
102
RTVSPost2010Prop35
280
     0
102
RTVSPost2010PropOp35
 70
     1
102
RTVSPost2010Prop36
280
     0
102
RTVSPost2010PropOp36
 70
     1
102
RTVSPost2010Prop37
 90
       50
102
RTVSPost2010PropOp37
 70
     1
102
RTVSPost2010Prop38
140
0.0
102
RTVSPost2010PropOp38
 70
     1
102
RTVSPost2010Prop39
140
1.0
102
RTVSPost2010PropOp39
 70
     1
102
RTVSPost2010Prop40
 90
        0
102
RTVSPost2010PropOp40
 70
     1
102
RTVSPost2010Prop41ColorIndex
 90
       18
102
RTVSPost2010Prop41ColorRGB
 90
        0
102
RTVSPost2010PropOp41
 70
     1
102
RTVSPost2010Prop42
 90
       50
102
RTVSPost2010PropOp42
 70
     1
102
RTVSPost2010Prop43
 90
        3
102
RTVSPost2010PropOp43
 70
     1
102
RTVSPost2010Prop44ColorIndex
 90
        5
102
RTVSPost2010Prop44ColorRGB
 90
      255
102
RTVSPost2010PropOp44
 70
     1
102
RTVSPost2010Prop45
280
     0
102
RTVSPost2010PropOp45
 70
     1
102
RTVSPost2010Prop46
 90
       50
102
RTVSPost2010PropOp46
 70
     1
102
RTVSPost2010Prop47
 90
       50
102
RTVSPost2010PropOp47
 70
     1
102
RTVSPost2010Prop48
 90
       50
102
RTVSPost2010PropOp48
 70
     1
102
RTVSPost2010Prop49
280
     0
102
RTVSPost2010PropOp49
 70
     1
102
RTVSPost2010Prop50
 90
       50
102
RTVSPost2010PropOp50
 70
     1
102
RTVSPost2010Prop51ColorIndex
 90
      256
102
RTVSPost2010Prop51ColorRGB
 90
-16777216
102
RTVSPost2010PropOp51
 70
     0
102
RTVSPost2010Prop52
140
1.0
102
RTVSPost2010PropOp52
 70
     0
102
RTVSPost2010Prop53
 90
        2
102
RTVSPost2010PropOp53
 70
     1
102
RTVSPost2010Prop54
  1
strokes_ogs.tif
102
RTVSPost2010PropOp54
 70
     1
102
RTVSPost2010Prop55
280
     0
102
RTVSPost2010PropOp55
 70
     1
102
RTVSPost2010Prop56
140
1.0
102
RTVSPost2010PropOp56
 70
     1
102
RTVSPost2010Prop57
140
1.0
102
RTVSPost2010PropOp57
 70
     1
  0
XRECORD
  5
30F
102
{ACAD_REACTORS
330
30E
102
}
330
30E
100
AcDbXrecord
280
     1
102
RTVSPropertyOp0
 70
     0
102
RTVSPropertyOp1
 70
     0
102
RTVSPropertyOp2
 70
     0
102
RTVSPropertyOp3
 70
     0
102
RTVSPropertyOp4
 70
     0
102
RTVSPropertyOp5
 70
     0
102
RTVSPropertyOp6
 70
     0
102
RTVSPropertyOp7
 70
     0
102
RTVSPropertyOp8
 70
     0
102
RTVSPropertyOp9
 70
     0
102
RTVSPropertyOp10
 70
     0
102
RTVSPropertyOp11
 70
     0
102
RTVSPropertyOp12
 70
     0
102
RTVSPropertyOp13
 70
     0
102
RTVSPropertyOp14
 70
     2
102
RTVSPropertyOp15
 70
     0
102
RTVSPropertyOp16
 70
     0
102
RTVSPropertyOp17
 70
     0
102
RTVSPropertyOp18
 70
     0
102
RTVSPropertyOp19
 70
     0
102
RTVSPropertyOp20
 70
     0
102
RTVSPropertyOp21
 70
     0
102
RTVSPropertyOp22
 70
     0
102
RTVSPropertyOp23
 70
     0
102
RTVSPropertyOp24
 70
     0
102
RTVSPropertyOp25
 70
     0
102
RTVSPropertyOp26
 70
     0
102
RTVSPropertyOp27
 70
     0
102
RTVSPropertyOp28
 70
     0
102
RTVSPropertyOp29
 70
     0
102
RTVSPropertyOp30
 70
     0
102
RTVSPropertyOp31
 70
     0
102
RTVSPropertyOp32
 70
     0
102
RTVSPropertyOp33
 70
     0
102
RTVSPropertyOp34
 70
     0
102
RTVSPropertyOp35
 70
     0
102
RTVSPropertyOp36
 70
     0
102
RTVSPropertyOp37
 70
     0
102
RTVSPropertyOp38
 70
     0
102
RTVSPropertyOp39
 70
     0
102
RTVSPropertyOp40
 70
     0
102
RTVSPropertyOp41
 70
     0
102
RTVSPropertyOp42
 70
     0
102
RTVSPropertyOp43
 70
     0
102
RTVSPropertyOp44
 70
     0
102
RTVSPropertyOp45
 70
     0
102
RTVSPropertyOp46
 70
     0
102
RTVSPropertyOp47
 70
     0
102
RTVSPropertyOp48
 70
     0
102
RTVSPropertyOp49
 70
     0
102
RTVSPropertyOp50
 70
     0
102
RTVSPropertyOp51
 70
     0
102
RTVSPropertyOp52
 70
     0
102
RTVSPropertyOp53
 70
     0
102
RTVSPropertyOp54
 70
     0
102
RTVSPropertyOp55
 70
     0
102
RTVSPropertyOp56
 70
     0
102
RTVSPropertyOp57
 70
     0
102
RTVSPost2010Prop28
280
     0
102
RTVSPost2010PropOp28
 70
     0
102
RTVSPost2010Prop29
280
     1
102
RTVSPost2010PropOp29
 70
     0
102
RTVSPost2010Prop30
280
     1
102
RTVSPost2010PropOp30
 70
     0
102
RTVSPost2010Prop31
280
     0
102
RTVSPost2010PropOp31
 70
     0
102
RTVSPost2010Prop32
280
     0
102
RTVSPost2010PropOp32
 70
     0
102
RTVSPost2010Prop33
280
     0
102
RTVSPost2010PropOp33
 70
     0
102
RTVSPost2010Prop34
280
     0
102
RTVSPost2010PropOp34
 70
     0
102
RTVSPost2010Prop35
280
     0
102
RTVSPost2010PropOp35
 70
     0
102
RTVSPost2010Prop36
280
     0
102
RTVSPost2010PropOp36
 70
     0
102
RTVSPost2010Prop37
 90
       50
102
RTVSPost2010PropOp37
 70
     0
102
RTVSPost2010Prop38
140
0.0
102
RTVSPost2010PropOp38
 70
     0
102
RTVSPost2010Prop39
140
1.0
102
RTVSPost2010PropOp39
 70
     0
102
RTVSPost2010Prop40
 90
        0
102
RTVSPost2010PropOp40
 70
     0
102
RTVSPost2010Prop41ColorIndex
 90
       18
102
RTVSPost2010Prop41ColorRGB
 90
        0
102
RTVSPost2010PropOp41
 70
     0
102
RTVSPost2010Prop42
 90
       50
102
RTVSPost2010PropOp42
 70
     0
102
RTVSPost2010Prop43
 90
        3
102
RTVSPost2010PropOp43
 70
     0
102
RTVSPost2010Prop44ColorIndex
 90
        5
102
RTVSPost2010Prop44ColorRGB
 90
      255
102
RTVSPost2010PropOp44
 70
     0
102
RTVSPost2010Prop45
280
     0
102
RTVSPost2010PropOp45
 70
     0
102
RTVSPost2010Prop46
 90
       50
102
RTVSPost2010PropOp46
 70
     0
102
RTVSPost2010Prop47
 90
       50
102
RTVSPost2010PropOp47
 70
     0
102
RTVSPost2010Prop48
 90
       50
102
RTVSPost2010PropOp48
 70
     0
102
RTVSPost2010Prop49
280
     0
102
RTVSPost2010PropOp49
 70
     0
102
RTVSPost2010Prop50
 90
       50
102
RTVSPost2010PropOp50
 70
     0
102
RTVSPost2010Prop51ColorIndex
 90
      256
102
RTVSPost2010Prop51ColorRGB
 90
-16777216
102
RTVSPost2010PropOp51
 70
     0
102
RTVSPost2010Prop52
140
1.0
102
RTVSPost2010PropOp52
 70
     0
102
RTVSPost2010Prop53
 90
        2
102
RTVSPost2010PropOp53
 70
     0
102
RTVSPost2010Prop54
  1
strokes_ogs.tif
102
RTVSPost2010PropOp54
 70
     0
102
RTVSPost2010Prop55
280
     0
102
RTVSPost2010PropOp55
 70
     0
102
RTVSPost2010Prop56
140
1.0
102
RTVSPost2010PropOp56
 70
     0
102
RTVSPost2010Prop57
140
1.0
102
RTVSPost2010PropOp57
 70
     0
  0
XRECORD
  5
2FD
102
{ACAD_REACTORS
330
2FC
102
}
330
2FC
100
AcDbXrecord
280
     1
102
RTVSPropertyOp0
 70
     1
102
RTVSPropertyOp1
 70
     1
102
RTVSPropertyOp2
 70
     1
102
RTVSPropertyOp3
 70
     1
102
RTVSPropertyOp4
 70
     1
102
RTVSPropertyOp5
 70
     1
102
RTVSPropertyOp6
 70
     1
102
RTVSPropertyOp7
 70
     1
102
RTVSPropertyOp8
 70
     1
102
RTVSPropertyOp9
 70
     1
102
RTVSPropertyOp10
 70
     1
102
RTVSPropertyOp11
 70
     1
102
RTVSPropertyOp12
 70
     1
102
RTVSPropertyOp13
 70
     1
102
RTVSPropertyOp14
 70
     1
102
RTVSPropertyOp15
 70
     1
102
RTVSPropertyOp16
 70
     1
102
RTVSPropertyOp17
 70
     1
102
RTVSPropertyOp18
 70
     1
102
RTVSPropertyOp19
 70
     1
102
RTVSPropertyOp20
 70
     1
102
RTVSPropertyOp21
 70
     1
102
RTVSPropertyOp22
 70
     1
102
RTVSPropertyOp23
 70
     1
102
RTVSPropertyOp24
 70
     1
102
RTVSPropertyOp25
 70
     1
102
RTVSPropertyOp26
 70
     1
102
RTVSPropertyOp27
 70
     1
102
RTVSPropertyOp28
 70
     1
102
RTVSPropertyOp29
 70
     1
102
RTVSPropertyOp30
 70
     1
102
RTVSPropertyOp31
 70
     1
102
RTVSPropertyOp32
 70
     1
102
RTVSPropertyOp33
 70
     1
102
RTVSPropertyOp34
 70
     1
102
RTVSPropertyOp35
 70
     1
102
RTVSPropertyOp36
 70
     1
102
RTVSPropertyOp37
 70
     1
102
RTVSPropertyOp38
 70
     1
102
RTVSPropertyOp39
 70
     1
102
RTVSPropertyOp40
 70
     1
102
RTVSPropertyOp41
 70
     1
102
RTVSPropertyOp42
 70
     1
102
RTVSPropertyOp43
 70
     1
102
RTVSPropertyOp44
 70
     1
102
RTVSPropertyOp45
 70
     1
102
RTVSPropertyOp46
 70
     1
102
RTVSPropertyOp47
 70
     1
102
RTVSPropertyOp48
 70
     1
102
RTVSPropertyOp49
 70
     1
102
RTVSPropertyOp50
 70
     1
102
RTVSPropertyOp51
 70
     0
102
RTVSPropertyOp52
 70
     0
102
RTVSPropertyOp53
 70
     1
102
RTVSPropertyOp54
 70
     1
102
RTVSPropertyOp55
 70
     1
102
RTVSPropertyOp56
 70
     1
102
RTVSPropertyOp57
 70
     1
102
RTVSPost2010Prop28
280
     0
102
RTVSPost2010PropOp28
 70
     1
102
RTVSPost2010Prop29
280
     1
102
RTVSPost2010PropOp29
 70
     1
102
RTVSPost2010Prop30
280
     1
102
RTVSPost2010PropOp30
 70
     1
102
RTVSPost2010Prop31
280
     0
102
RTVSPost2010PropOp31
 70
     1
102
RTVSPost2010Prop32
280
     0
102
RTVSPost2010PropOp32
 70
     1
102
RTVSPost2010Prop33
280
     0
102
RTVSPost2010PropOp33
 70
     1
102
RTVSPost2010Prop34
280
     0
102
RTVSPost2010PropOp34
 70
     1
102
RTVSPost2010Prop35
280
     0
102
RTVSPost2010PropOp35
 70
     1
102
RTVSPost2010Prop36
280
     0
102
RTVSPost2010PropOp36
 70
     1
102
RTVSPost2010Prop37
 90
       50
102
RTVSPost2010PropOp37
 70
     1
102
RTVSPost2010Prop38
140
0.0
102
RTVSPost2010PropOp38
 70
     1
102
RTVSPost2010Prop39
140
1.0
102
RTVSPost2010PropOp39
 70
     1
102
RTVSPost2010Prop40
 90
        0
102
RTVSPost2010PropOp40
 70
     1
102
RTVSPost2010Prop41ColorIndex
 90
       18
102
RTVSPost2010Prop41ColorRGB
 90
        0
102
RTVSPost2010PropOp41
 70
     1
102
RTVSPost2010Prop42
 90
       50
102
RTVSPost2010PropOp42
 70
     1
102
RTVSPost2010Prop43
 90
        3
102
RTVSPost2010PropOp43
 70
     1
102
RTVSPost2010Prop44ColorIndex
 90
        5
102
RTVSPost2010Prop44ColorRGB
 90
      255
102
RTVSPost2010PropOp44
 70
     1
102
RTVSPost2010Prop45
280
     0
102
RTVSPost2010PropOp45
 70
     1
102
RTVSPost2010Prop46
 90
       50
102
RTVSPost2010PropOp46
 70
     1
102
RTVSPost2010Prop47
 90
       50
102
RTVSPost2010PropOp47
 70
     1
102
RTVSPost2010Prop48
 90
       50
102
RTVSPost2010PropOp48
 70
     1
102
RTVSPost2010Prop49
280
     0
102
RTVSPost2010PropOp49
 70
     1
102
RTVSPost2010Prop50
 90
       50
102
RTVSPost2010PropOp50
 70
     1
102
RTVSPost2010Prop51ColorIndex
 90
      256
102
RTVSPost2010Prop51ColorRGB
 90
-16777216
102
RTVSPost2010PropOp51
 70
     0
102
RTVSPost2010Prop52
140
1.0
102
RTVSPost2010PropOp52
 70
     0
102
RTVSPost2010Prop53
 90
        2
102
RTVSPost2010PropOp53
 70
     1
102
RTVSPost2010Prop54
  1
strokes_ogs.tif
102
RTVSPost2010PropOp54
 70
     1
102
RTVSPost2010Prop55
280
     0
102
RTVSPost2010PropOp55
 70
     1
102
RTVSPost2010Prop56
140
1.0
102
RTVSPost2010PropOp56
 70
     1
102
RTVSPost2010Prop57
140
1.0
102
RTVSPost2010PropOp57
 70
     1
  0
XRECORD
  5
31B
102
{ACAD_REACTORS
330
31A
102
}
330
31A
100
AcDbXrecord
280
     1
102
RTVSPropertyOp0
 70
     1
102
RTVSPropertyOp1
 70
     1
102
RTVSPropertyOp2
 70
     1
102
RTVSPropertyOp3
 70
     1
102
RTVSPropertyOp4
 70
     1
102
RTVSPropertyOp5
 70
     1
102
RTVSPropertyOp6
 70
     1
102
RTVSPropertyOp7
 70
     1
102
RTVSPropertyOp8
 70
     1
102
RTVSPropertyOp9
 70
     1
102
RTVSPropertyOp10
 70
     1
102
RTVSPropertyOp11
 70
     1
102
RTVSPropertyOp12
 70
     1
102
RTVSPropertyOp13
 70
     1
102
RTVSPropertyOp14
 70
     1
102
RTVSPropertyOp15
 70
     1
102
RTVSPropertyOp16
 70
     1
102
RTVSPropertyOp17
 70
     1
102
RTVSPropertyOp18
 70
     1
102
RTVSPropertyOp19
 70
     1
102
RTVSPropertyOp20
 70
     1
102
RTVSPropertyOp21
 70
     1
102
RTVSPropertyOp22
 70
     1
102
RTVSPropertyOp23
 70
     1
102
RTVSPropertyOp24
 70
     1
102
RTVSPropertyOp25
 70
     1
102
RTVSPropertyOp26
 70
     1
102
RTVSPropertyOp27
 70
     1
102
RTVSPropertyOp28
 70
     1
102
RTVSPropertyOp29
 70
     1
102
RTVSPropertyOp30
 70
     1
102
RTVSPropertyOp31
 70
     1
102
RTVSPropertyOp32
 70
     1
102
RTVSPropertyOp33
 70
     1
102
RTVSPropertyOp34
 70
     1
102
RTVSPropertyOp35
 70
     1
102
RTVSPropertyOp36
 70
     1
102
RTVSPropertyOp37
 70
     1
102
RTVSPropertyOp38
 70
     1
102
RTVSPropertyOp39
 70
     1
102
RTVSPropertyOp40
 70
     1
102
RTVSPropertyOp41
 70
     1
102
RTVSPropertyOp42
 70
     1
102
RTVSPropertyOp43
 70
     1
102
RTVSPropertyOp44
 70
     1
102
RTVSPropertyOp45
 70
     1
102
RTVSPropertyOp46
 70
     1
102
RTVSPropertyOp47
 70
     1
102
RTVSPropertyOp48
 70
     1
102
RTVSPropertyOp49
 70
     1
102
RTVSPropertyOp50
 70
     1
102
RTVSPropertyOp51
 70
     0
102
RTVSPropertyOp52
 70
     0
102
RTVSPropertyOp53
 70
     1
102
RTVSPropertyOp54
 70
     1
102
RTVSPropertyOp55
 70
     1
102
RTVSPropertyOp56
 70
     1
102
RTVSPropertyOp57
 70
     1
102
RTVSPost2010Prop28
280
     0
102
RTVSPost2010PropOp28
 70
     1
102
RTVSPost2010Prop29
280
     1
102
RTVSPost2010PropOp29
 70
     1
102
RTVSPost2010Prop30
280
     1
102
RTVSPost2010PropOp30
 70
     1
102
RTVSPost2010Prop31
280
     0
102
RTVSPost2010PropOp31
 70
     1
102
RTVSPost2010Prop32
280
     0
102
RTVSPost2010PropOp32
 70
     1
102
RTVSPost2010Prop33
280
     0
102
RTVSPost2010PropOp33
 70
     1
102
RTVSPost2010Prop34
280
     0
102
RTVSPost2010PropOp34
 70
     1
102
RTVSPost2010Prop35
280
     0
102
RTVSPost2010PropOp35
 70
     1
102
RTVSPost2010Prop36
280
     0
102
RTVSPost2010PropOp36
 70
     1
102
RTVSPost2010Prop37
 90
       50
102
RTVSPost2010PropOp37
 70
     1
102
RTVSPost2010Prop38
140
0.0
102
RTVSPost2010PropOp38
 70
     1
102
RTVSPost2010Prop39
140
1.0
102
RTVSPost2010PropOp39
 70
     1
102
RTVSPost2010Prop40
 90
        0
102
RTVSPost2010PropOp40
 70
     1
102
RTVSPost2010Prop41ColorIndex
 90
       18
102
RTVSPost2010Prop41ColorRGB
 90
        0
102
RTVSPost2010PropOp41
 70
     1
102
RTVSPost2010Prop42
 90
       50
102
RTVSPost2010PropOp42
 70
     1
102
RTVSPost2010Prop43
 90
        3
102
RTVSPost2010PropOp43
 70
     1
102
RTVSPost2010Prop44ColorIndex
 90
        5
102
RTVSPost2010Prop44ColorRGB
 90
      255
102
RTVSPost2010PropOp44
 70
     1
102
RTVSPost2010Prop45
280
     0
102
RTVSPost2010PropOp45
 70
     1
102
RTVSPost2010Prop46
 90
       50
102
RTVSPost2010PropOp46
 70
     1
102
RTVSPost2010Prop47
 90
       50
102
RTVSPost2010PropOp47
 70
     1
102
RTVSPost2010Prop48
 90
       50
102
RTVSPost2010PropOp48
 70
     1
102
RTVSPost2010Prop49
280
     0
102
RTVSPost2010PropOp49
 70
     1
102
RTVSPost2010Prop50
 90
       50
102
RTVSPost2010PropOp50
 70
     1
102
RTVSPost2010Prop51ColorIndex
 90
      256
102
RTVSPost2010Prop51ColorRGB
 90
-16777216
102
RTVSPost2010PropOp51
 70
     0
102
RTVSPost2010Prop52
140
1.0
102
RTVSPost2010PropOp52
 70
     0
102
RTVSPost2010Prop53
 90
        2
102
RTVSPost2010PropOp53
 70
     1
102
RTVSPost2010Prop54
  1
strokes_ogs.tif
102
RTVSPost2010PropOp54
 70
     1
102
RTVSPost2010Prop55
280
     0
102
RTVSPost2010PropOp55
 70
     1
102
RTVSPost2010Prop56
140
1.0
102
RTVSPost2010PropOp56
 70
     1
102
RTVSPost2010Prop57
140
1.0
102
RTVSPost2010PropOp57
 70
     1
  0
XRECORD
  5
319
102
{ACAD_REACTORS
330
318
102
}
330
318
100
AcDbXrecord
280
     1
102
RTVSPropertyOp0
 70
     1
102
RTVSPropertyOp1
 70
     1
102
RTVSPropertyOp2
 70
     1
102
RTVSPropertyOp3
 70
     1
102
RTVSPropertyOp4
 70
     1
102
RTVSPropertyOp5
 70
     1
102
RTVSPropertyOp6
 70
     1
102
RTVSPropertyOp7
 70
     1
102
RTVSPropertyOp8
 70
     1
102
RTVSPropertyOp9
 70
     1
102
RTVSPropertyOp10
 70
     1
102
RTVSPropertyOp11
 70
     1
102
RTVSPropertyOp12
 70
     1
102
RTVSPropertyOp13
 70
     1
102
RTVSPropertyOp14
 70
     1
102
RTVSPropertyOp15
 70
     1
102
RTVSPropertyOp16
 70
     1
102
RTVSPropertyOp17
 70
     1
102
RTVSPropertyOp18
 70
     1
102
RTVSPropertyOp19
 70
     1
102
RTVSPropertyOp20
 70
     1
102
RTVSPropertyOp21
 70
     1
102
RTVSPropertyOp22
 70
     1
102
RTVSPropertyOp23
 70
     1
102
RTVSPropertyOp24
 70
     1
102
RTVSPropertyOp25
 70
     1
102
RTVSPropertyOp26
 70
     1
102
RTVSPropertyOp27
 70
     1
102
RTVSPropertyOp28
 70
     1
102
RTVSPropertyOp29
 70
     1
102
RTVSPropertyOp30
 70
     1
102
RTVSPropertyOp31
 70
     1
102
RTVSPropertyOp32
 70
     1
102
RTVSPropertyOp33
 70
     1
102
RTVSPropertyOp34
 70
     1
102
RTVSPropertyOp35
 70
     1
102
RTVSPropertyOp36
 70
     1
102
RTVSPropertyOp37
 70
     1
102
RTVSPropertyOp38
 70
     1
102
RTVSPropertyOp39
 70
     1
102
RTVSPropertyOp40
 70
     1
102
RTVSPropertyOp41
 70
     1
102
RTVSPropertyOp42
 70
     1
102
RTVSPropertyOp43
 70
     1
102
RTVSPropertyOp44
 70
     1
102
RTVSPropertyOp45
 70
     1
102
RTVSPropertyOp46
 70
     1
102
RTVSPropertyOp47
 70
     1
102
RTVSPropertyOp48
 70
     1
102
RTVSPropertyOp49
 70
     1
102
RTVSPropertyOp50
 70
     1
102
RTVSPropertyOp51
 70
     0
102
RTVSPropertyOp52
 70
     0
102
RTVSPropertyOp53
 70
     1
102
RTVSPropertyOp54
 70
     1
102
RTVSPropertyOp55
 70
     1
102
RTVSPropertyOp56
 70
     1
102
RTVSPropertyOp57
 70
     1
102
RTVSPost2010Prop28
280
     0
102
RTVSPost2010PropOp28
 70
     1
102
RTVSPost2010Prop29
280
     1
102
RTVSPost2010PropOp29
 70
     1
102
RTVSPost2010Prop30
280
     1
102
RTVSPost2010PropOp30
 70
     1
102
RTVSPost2010Prop31
280
     0
102
RTVSPost2010PropOp31
 70
     1
102
RTVSPost2010Prop32
280
     0
102
RTVSPost2010PropOp32
 70
     1
102
RTVSPost2010Prop33
280
     0
102
RTVSPost2010PropOp33
 70
     1
102
RTVSPost2010Prop34
280
     0
102
RTVSPost2010PropOp34
 70
     1
102
RTVSPost2010Prop35
280
     0
102
RTVSPost2010PropOp35
 70
     1
102
RTVSPost2010Prop36
280
     0
102
RTVSPost2010PropOp36
 70
     1
102
RTVSPost2010Prop37
 90
       50
102
RTVSPost2010PropOp37
 70
     1
102
RTVSPost2010Prop38
140
0.0
102
RTVSPost2010PropOp38
 70
     1
102
RTVSPost2010Prop39
140
1.0
102
RTVSPost2010PropOp39
 70
     1
102
RTVSPost2010Prop40
 90
        0
102
RTVSPost2010PropOp40
 70
     1
102
RTVSPost2010Prop41ColorIndex
 90
       18
102
RTVSPost2010Prop41ColorRGB
 90
        0
102
RTVSPost2010PropOp41
 70
     1
102
RTVSPost2010Prop42
 90
       50
102
RTVSPost2010PropOp42
 70
     1
102
RTVSPost2010Prop43
 90
        3
102
RTVSPost2010PropOp43
 70
     1
102
RTVSPost2010Prop44ColorIndex
 90
        5
102
RTVSPost2010Prop44ColorRGB
 90
      255
102
RTVSPost2010PropOp44
 70
     1
102
RTVSPost2010Prop45
280
     0
102
RTVSPost2010PropOp45
 70
     1
102
RTVSPost2010Prop46
 90
       50
102
RTVSPost2010PropOp46
 70
     1
102
RTVSPost2010Prop47
 90
       50
102
RTVSPost2010PropOp47
 70
     1
102
RTVSPost2010Prop48
 90
       50
102
RTVSPost2010PropOp48
 70
     1
102
RTVSPost2010Prop49
280
     0
102
RTVSPost2010PropOp49
 70
     1
102
RTVSPost2010Prop50
 90
       50
102
RTVSPost2010PropOp50
 70
     1
102
RTVSPost2010Prop51ColorIndex
 90
      256
102
RTVSPost2010Prop51ColorRGB
 90
-16777216
102
RTVSPost2010PropOp51
 70
     0
102
RTVSPost2010Prop52
140
1.0
102
RTVSPost2010PropOp52
 70
     0
102
RTVSPost2010Prop53
 90
        2
102
RTVSPost2010PropOp53
 70
     1
102
RTVSPost2010Prop54
  1
strokes_ogs.tif
102
RTVSPost2010PropOp54
 70
     1
102
RTVSPost2010Prop55
280
     0
102
RTVSPost2010PropOp55
 70
     1
102
RTVSPost2010Prop56
140
1.0
102
RTVSPost2010PropOp56
 70
     1
102
RTVSPost2010Prop57
140
1.0
102
RTVSPost2010PropOp57
 70
     1
  0
XRECORD
  5
313
102
{ACAD_REACTORS
330
312
102
}
330
312
100
AcDbXrecord
280
     1
102
RTVSPropertyOp0
 70
     1
102
RTVSPropertyOp1
 70
     1
102
RTVSPropertyOp2
 70
     1
102
RTVSPropertyOp3
 70
     1
102
RTVSPropertyOp4
 70
     1
102
RTVSPropertyOp5
 70
     1
102
RTVSPropertyOp6
 70
     1
102
RTVSPropertyOp7
 70
     1
102
RTVSPropertyOp8
 70
     1
102
RTVSPropertyOp9
 70
     1
102
RTVSPropertyOp10
 70
     1
102
RTVSPropertyOp11
 70
     1
102
RTVSPropertyOp12
 70
     1
102
RTVSPropertyOp13
 70
     1
102
RTVSPropertyOp14
 70
     1
102
RTVSPropertyOp15
 70
     1
102
RTVSPropertyOp16
 70
     1
102
RTVSPropertyOp17
 70
     1
102
RTVSPropertyOp18
 70
     1
102
RTVSPropertyOp19
 70
     1
102
RTVSPropertyOp20
 70
     1
102
RTVSPropertyOp21
 70
     1
102
RTVSPropertyOp22
 70
     1
102
RTVSPropertyOp23
 70
     1
102
RTVSPropertyOp24
 70
     1
102
RTVSPropertyOp25
 70
     1
102
RTVSPropertyOp26
 70
     1
102
RTVSPropertyOp27
 70
     1
102
RTVSPropertyOp28
 70
     1
102
RTVSPropertyOp29
 70
     1
102
RTVSPropertyOp30
 70
     1
102
RTVSPropertyOp31
 70
     1
102
RTVSPropertyOp32
 70
     1
102
RTVSPropertyOp33
 70
     1
102
RTVSPropertyOp34
 70
     1
102
RTVSPropertyOp35
 70
     1
102
RTVSPropertyOp36
 70
     1
102
RTVSPropertyOp37
 70
     1
102
RTVSPropertyOp38
 70
     1
102
RTVSPropertyOp39
 70
     1
102
RTVSPropertyOp40
 70
     1
102
RTVSPropertyOp41
 70
     1
102
RTVSPropertyOp42
 70
     1
102
RTVSPropertyOp43
 70
     1
102
RTVSPropertyOp44
 70
     1
102
RTVSPropertyOp45
 70
     1
102
RTVSPropertyOp46
 70
     1
102
RTVSPropertyOp47
 70
     1
102
RTVSPropertyOp48
 70
     1
102
RTVSPropertyOp49
 70
     1
102
RTVSPropertyOp50
 70
     1
102
RTVSPropertyOp51
 70
     0
102
RTVSPropertyOp52
 70
     0
102
RTVSPropertyOp53
 70
     1
102
RTVSPropertyOp54
 70
     1
102
RTVSPropertyOp55
 70
     1
102
RTVSPropertyOp56
 70
     1
102
RTVSPropertyOp57
 70
     1
102
RTVSPost2010Prop28
280
     0
102
RTVSPost2010PropOp28
 70
     1
102
RTVSPost2010Prop29
280
     1
102
RTVSPost2010PropOp29
 70
     1
102
RTVSPost2010Prop30
280
     1
102
RTVSPost2010PropOp30
 70
     1
102
RTVSPost2010Prop31
280
     0
102
RTVSPost2010PropOp31
 70
     1
102
RTVSPost2010Prop32
280
     0
102
RTVSPost2010PropOp32
 70
     1
102
RTVSPost2010Prop33
280
     0
102
RTVSPost2010PropOp33
 70
     1
102
RTVSPost2010Prop34
280
     0
102
RTVSPost2010PropOp34
 70
     1
102
RTVSPost2010Prop35
280
     0
102
RTVSPost2010PropOp35
 70
     1
102
RTVSPost2010Prop36
280
     0
102
RTVSPost2010PropOp36
 70
     1
102
RTVSPost2010Prop37
 90
       50
102
RTVSPost2010PropOp37
 70
     1
102
RTVSPost2010Prop38
140
0.0
102
RTVSPost2010PropOp38
 70
     1
102
RTVSPost2010Prop39
140
1.0
102
RTVSPost2010PropOp39
 70
     1
102
RTVSPost2010Prop40
 90
        0
102
RTVSPost2010PropOp40
 70
     1
102
RTVSPost2010Prop41ColorIndex
 90
       18
102
RTVSPost2010Prop41ColorRGB
 90
        0
102
RTVSPost2010PropOp41
 70
     1
102
RTVSPost2010Prop42
 90
       50
102
RTVSPost2010PropOp42
 70
     1
102
RTVSPost2010Prop43
 90
        3
102
RTVSPost2010PropOp43
 70
     1
102
RTVSPost2010Prop44ColorIndex
 90
        5
102
RTVSPost2010Prop44ColorRGB
 90
      255
102
RTVSPost2010PropOp44
 70
     1
102
RTVSPost2010Prop45
280
     0
102
RTVSPost2010PropOp45
 70
     1
102
RTVSPost2010Prop46
 90
       50
102
RTVSPost2010PropOp46
 70
     1
102
RTVSPost2010Prop47
 90
       50
102
RTVSPost2010PropOp47
 70
     1
102
RTVSPost2010Prop48
 90
       50
102
RTVSPost2010PropOp48
 70
     1
102
RTVSPost2010Prop49
280
     0
102
RTVSPost2010PropOp49
 70
     1
102
RTVSPost2010Prop50
 90
       50
102
RTVSPost2010PropOp50
 70
     1
102
RTVSPost2010Prop51ColorIndex
 90
      256
102
RTVSPost2010Prop51ColorRGB
 90
-16777216
102
RTVSPost2010PropOp51
 70
     0
102
RTVSPost2010Prop52
140
1.0
102
RTVSPost2010PropOp52
 70
     0
102
RTVSPost2010Prop53
 90
        2
102
RTVSPost2010PropOp53
 70
     1
102
RTVSPost2010Prop54
  1
strokes_ogs.tif
102
RTVSPost2010PropOp54
 70
     1
102
RTVSPost2010Prop55
280
     0
102
RTVSPost2010PropOp55
 70
     1
102
RTVSPost2010Prop56
140
1.0
102
RTVSPost2010PropOp56
 70
     1
102
RTVSPost2010Prop57
140
1.0
102
RTVSPost2010PropOp57
 70
     1
  0
XRECORD
  5
315
102
{ACAD_REACTORS
330
314
102
}
330
314
100
AcDbXrecord
280
     1
102
RTVSPropertyOp0
 70
     1
102
RTVSPropertyOp1
 70
     1
102
RTVSPropertyOp2
 70
     1
102
RTVSPropertyOp3
 70
     1
102
RTVSPropertyOp4
 70
     1
102
RTVSPropertyOp5
 70
     1
102
RTVSPropertyOp6
 70
     1
102
RTVSPropertyOp7
 70
     1
102
RTVSPropertyOp8
 70
     1
102
RTVSPropertyOp9
 70
     1
102
RTVSPropertyOp10
 70
     1
102
RTVSPropertyOp11
 70
     1
102
RTVSPropertyOp12
 70
     1
102
RTVSPropertyOp13
 70
     1
102
RTVSPropertyOp14
 70
     1
102
RTVSPropertyOp15
 70
     1
102
RTVSPropertyOp16
 70
     1
102
RTVSPropertyOp17
 70
     1
102
RTVSPropertyOp18
 70
     1
102
RTVSPropertyOp19
 70
     1
102
RTVSPropertyOp20
 70
     1
102
RTVSPropertyOp21
 70
     1
102
RTVSPropertyOp22
 70
     1
102
RTVSPropertyOp23
 70
     1
102
RTVSPropertyOp24
 70
     1
102
RTVSPropertyOp25
 70
     1
102
RTVSPropertyOp26
 70
     1
102
RTVSPropertyOp27
 70
     1
102
RTVSPropertyOp28
 70
     1
102
RTVSPropertyOp29
 70
     1
102
RTVSPropertyOp30
 70
     1
102
RTVSPropertyOp31
 70
     1
102
RTVSPropertyOp32
 70
     1
102
RTVSPropertyOp33
 70
     1
102
RTVSPropertyOp34
 70
     1
102
RTVSPropertyOp35
 70
     1
102
RTVSPropertyOp36
 70
     1
102
RTVSPropertyOp37
 70
     1
102
RTVSPropertyOp38
 70
     1
102
RTVSPropertyOp39
 70
     1
102
RTVSPropertyOp40
 70
     1
102
RTVSPropertyOp41
 70
     1
102
RTVSPropertyOp42
 70
     1
102
RTVSPropertyOp43
 70
     1
102
RTVSPropertyOp44
 70
     1
102
RTVSPropertyOp45
 70
     1
102
RTVSPropertyOp46
 70
     1
102
RTVSPropertyOp47
 70
     1
102
RTVSPropertyOp48
 70
     1
102
RTVSPropertyOp49
 70
     1
102
RTVSPropertyOp50
 70
     1
102
RTVSPropertyOp51
 70
     0
102
RTVSPropertyOp52
 70
     0
102
RTVSPropertyOp53
 70
     1
102
RTVSPropertyOp54
 70
     1
102
RTVSPropertyOp55
 70
     1
102
RTVSPropertyOp56
 70
     1
102
RTVSPropertyOp57
 70
     1
102
RTVSPost2010Prop28
280
     0
102
RTVSPost2010PropOp28
 70
     1
102
RTVSPost2010Prop29
280
     1
102
RTVSPost2010PropOp29
 70
     1
102
RTVSPost2010Prop30
280
     1
102
RTVSPost2010PropOp30
 70
     1
102
RTVSPost2010Prop31
280
     0
102
RTVSPost2010PropOp31
 70
     1
102
RTVSPost2010Prop32
280
     0
102
RTVSPost2010PropOp32
 70
     1
102
RTVSPost2010Prop33
280
     0
102
RTVSPost2010PropOp33
 70
     1
102
RTVSPost2010Prop34
280
     0
102
RTVSPost2010PropOp34
 70
     1
102
RTVSPost2010Prop35
280
     0
102
RTVSPost2010PropOp35
 70
     1
102
RTVSPost2010Prop36
280
     0
102
RTVSPost2010PropOp36
 70
     1
102
RTVSPost2010Prop37
 90
       50
102
RTVSPost2010PropOp37
 70
     1
102
RTVSPost2010Prop38
140
0.0
102
RTVSPost2010PropOp38
 70
     1
102
RTVSPost2010Prop39
140
1.0
102
RTVSPost2010PropOp39
 70
     1
102
RTVSPost2010Prop40
 90
        0
102
RTVSPost2010PropOp40
 70
     1
102
RTVSPost2010Prop41ColorIndex
 90
       18
102
RTVSPost2010Prop41ColorRGB
 90
        0
102
RTVSPost2010PropOp41
 70
     1
102
RTVSPost2010Prop42
 90
       50
102
RTVSPost2010PropOp42
 70
     1
102
RTVSPost2010Prop43
 90
        3
102
RTVSPost2010PropOp43
 70
     1
102
RTVSPost2010Prop44ColorIndex
 90
        5
102
RTVSPost2010Prop44ColorRGB
 90
      255
102
RTVSPost2010PropOp44
 70
     1
102
RTVSPost2010Prop45
280
     0
102
RTVSPost2010PropOp45
 70
     1
102
RTVSPost2010Prop46
 90
       50
102
RTVSPost2010PropOp46
 70
     1
102
RTVSPost2010Prop47
 90
       50
102
RTVSPost2010PropOp47
 70
     1
102
RTVSPost2010Prop48
 90
       50
102
RTVSPost2010PropOp48
 70
     1
102
RTVSPost2010Prop49
280
     0
102
RTVSPost2010PropOp49
 70
     1
102
RTVSPost2010Prop50
 90
       50
102
RTVSPost2010PropOp50
 70
     1
102
RTVSPost2010Prop51ColorIndex
 90
      256
102
RTVSPost2010Prop51ColorRGB
 90
-16777216
102
RTVSPost2010PropOp51
 70
     0
102
RTVSPost2010Prop52
140
1.0
102
RTVSPost2010PropOp52
 70
     0
102
RTVSPost2010Prop53
 90
        2
102
RTVSPost2010PropOp53
 70
     1
102
RTVSPost2010Prop54
  1
strokes_ogs.tif
102
RTVSPost2010PropOp54
 70
     1
102
RTVSPost2010Prop55
280
     0
102
RTVSPost2010PropOp55
 70
     1
102
RTVSPost2010Prop56
140
1.0
102
RTVSPost2010PropOp56
 70
     1
102
RTVSPost2010Prop57
140
1.0
102
RTVSPost2010PropOp57
 70
     1
  0
XRECORD
  5
305
102
{ACAD_REACTORS
330
304
102
}
330
304
100
AcDbXrecord
280
     1
102
RTVSPropertyOp0
 70
     1
102
RTVSPropertyOp1
 70
     1
102
RTVSPropertyOp2
 70
     1
102
RTVSPropertyOp3
 70
     1
102
RTVSPropertyOp4
 70
     1
102
RTVSPropertyOp5
 70
     1
102
RTVSPropertyOp6
 70
     1
102
RTVSPropertyOp7
 70
     1
102
RTVSPropertyOp8
 70
     1
102
RTVSPropertyOp9
 70
     1
102
RTVSPropertyOp10
 70
     1
102
RTVSPropertyOp11
 70
     1
102
RTVSPropertyOp12
 70
     1
102
RTVSPropertyOp13
 70
     1
102
RTVSPropertyOp14
 70
     1
102
RTVSPropertyOp15
 70
     1
102
RTVSPropertyOp16
 70
     1
102
RTVSPropertyOp17
 70
     1
102
RTVSPropertyOp18
 70
     1
102
RTVSPropertyOp19
 70
     1
102
RTVSPropertyOp20
 70
     1
102
RTVSPropertyOp21
 70
     1
102
RTVSPropertyOp22
 70
     1
102
RTVSPropertyOp23
 70
     1
102
RTVSPropertyOp24
 70
     1
102
RTVSPropertyOp25
 70
     1
102
RTVSPropertyOp26
 70
     1
102
RTVSPropertyOp27
 70
     1
102
RTVSPropertyOp28
 70
     1
102
RTVSPropertyOp29
 70
     1
102
RTVSPropertyOp30
 70
     1
102
RTVSPropertyOp31
 70
     1
102
RTVSPropertyOp32
 70
     1
102
RTVSPropertyOp33
 70
     1
102
RTVSPropertyOp34
 70
     1
102
RTVSPropertyOp35
 70
     1
102
RTVSPropertyOp36
 70
     1
102
RTVSPropertyOp37
 70
     1
102
RTVSPropertyOp38
 70
     1
102
RTVSPropertyOp39
 70
     1
102
RTVSPropertyOp40
 70
     1
102
RTVSPropertyOp41
 70
     1
102
RTVSPropertyOp42
 70
     1
102
RTVSPropertyOp43
 70
     1
102
RTVSPropertyOp44
 70
     1
102
RTVSPropertyOp45
 70
     1
102
RTVSPropertyOp46
 70
     1
102
RTVSPropertyOp47
 70
     1
102
RTVSPropertyOp48
 70
     1
102
RTVSPropertyOp49
 70
     1
102
RTVSPropertyOp50
 70
     1
102
RTVSPropertyOp51
 70
     0
102
RTVSPropertyOp52
 70
     0
102
RTVSPropertyOp53
 70
     1
102
RTVSPropertyOp54
 70
     1
102
RTVSPropertyOp55
 70
     1
102
RTVSPropertyOp56
 70
     1
102
RTVSPropertyOp57
 70
     1
102
RTVSPost2010Prop28
280
     0
102
RTVSPost2010PropOp28
 70
     1
102
RTVSPost2010Prop29
280
     1
102
RTVSPost2010PropOp29
 70
     1
102
RTVSPost2010Prop30
280
     1
102
RTVSPost2010PropOp30
 70
     1
102
RTVSPost2010Prop31
280
     0
102
RTVSPost2010PropOp31
 70
     1
102
RTVSPost2010Prop32
280
     0
102
RTVSPost2010PropOp32
 70
     1
102
RTVSPost2010Prop33
280
     0
102
RTVSPost2010PropOp33
 70
     1
102
RTVSPost2010Prop34
280
     0
102
RTVSPost2010PropOp34
 70
     1
102
RTVSPost2010Prop35
280
     0
102
RTVSPost2010PropOp35
 70
     1
102
RTVSPost2010Prop36
280
     0
102
RTVSPost2010PropOp36
 70
     1
102
RTVSPost2010Prop37
 90
       50
102
RTVSPost2010PropOp37
 70
     1
102
RTVSPost2010Prop38
140
0.0
102
RTVSPost2010PropOp38
 70
     1
102
RTVSPost2010Prop39
140
1.0
102
RTVSPost2010PropOp39
 70
     1
102
RTVSPost2010Prop40
 90
        0
102
RTVSPost2010PropOp40
 70
     1
102
RTVSPost2010Prop41ColorIndex
 90
       18
102
RTVSPost2010Prop41ColorRGB
 90
        0
102
RTVSPost2010PropOp41
 70
     1
102
RTVSPost2010Prop42
 90
       50
102
RTVSPost2010PropOp42
 70
     1
102
RTVSPost2010Prop43
 90
        3
102
RTVSPost2010PropOp43
 70
     1
102
RTVSPost2010Prop44ColorIndex
 90
        5
102
RTVSPost2010Prop44ColorRGB
 90
      255
102
RTVSPost2010PropOp44
 70
     1
102
RTVSPost2010Prop45
280
     0
102
RTVSPost2010PropOp45
 70
     1
102
RTVSPost2010Prop46
 90
       50
102
RTVSPost2010PropOp46
 70
     1
102
RTVSPost2010Prop47
 90
       50
102
RTVSPost2010PropOp47
 70
     1
102
RTVSPost2010Prop48
 90
       50
102
RTVSPost2010PropOp48
 70
     1
102
RTVSPost2010Prop49
280
     0
102
RTVSPost2010PropOp49
 70
     1
102
RTVSPost2010Prop50
 90
       50
102
RTVSPost2010PropOp50
 70
     1
102
RTVSPost2010Prop51ColorIndex
 90
      256
102
RTVSPost2010Prop51ColorRGB
 90
-16777216
102
RTVSPost2010PropOp51
 70
     0
102
RTVSPost2010Prop52
140
1.0
102
RTVSPost2010PropOp52
 70
     0
102
RTVSPost2010Prop53
 90
        2
102
RTVSPost2010PropOp53
 70
     1
102
RTVSPost2010Prop54
  1
strokes_ogs.tif
102
RTVSPost2010PropOp54
 70
     1
102
RTVSPost2010Prop55
280
     0
102
RTVSPost2010PropOp55
 70
     1
102
RTVSPost2010Prop56
140
1.0
102
RTVSPost2010PropOp56
 70
     1
102
RTVSPost2010Prop57
140
1.0
102
RTVSPost2010PropOp57
 70
     1
  0
XRECORD
  5
2F7
102
{ACAD_REACTORS
330
2F6
102
}
330
2F6
100
AcDbXrecord
280
     1
102
RTVSPropertyOp0
 70
     1
102
RTVSPropertyOp1
 70
     1
102
RTVSPropertyOp2
 70
     1
102
RTVSPropertyOp3
 70
     1
102
RTVSPropertyOp4
 70
     1
102
RTVSPropertyOp5
 70
     1
102
RTVSPropertyOp6
 70
     1
102
RTVSPropertyOp7
 70
     1
102
RTVSPropertyOp8
 70
     1
102
RTVSPropertyOp9
 70
     1
102
RTVSPropertyOp10
 70
     1
102
RTVSPropertyOp11
 70
     1
102
RTVSPropertyOp12
 70
     1
102
RTVSPropertyOp13
 70
     1
102
RTVSPropertyOp14
 70
     1
102
RTVSPropertyOp15
 70
     1
102
RTVSPropertyOp16
 70
     1
102
RTVSPropertyOp17
 70
     1
102
RTVSPropertyOp18
 70
     1
102
RTVSPropertyOp19
 70
     1
102
RTVSPropertyOp20
 70
     1
102
RTVSPropertyOp21
 70
     1
102
RTVSPropertyOp22
 70
     1
102
RTVSPropertyOp23
 70
     1
102
RTVSPropertyOp24
 70
     1
102
RTVSPropertyOp25
 70
     1
102
RTVSPropertyOp26
 70
     1
102
RTVSPropertyOp27
 70
     1
102
RTVSPropertyOp28
 70
     1
102
RTVSPropertyOp29
 70
     1
102
RTVSPropertyOp30
 70
     1
102
RTVSPropertyOp31
 70
     1
102
RTVSPropertyOp32
 70
     1
102
RTVSPropertyOp33
 70
     1
102
RTVSPropertyOp34
 70
     1
102
RTVSPropertyOp35
 70
     1
102
RTVSPropertyOp36
 70
     1
102
RTVSPropertyOp37
 70
     1
102
RTVSPropertyOp38
 70
     1
102
RTVSPropertyOp39
 70
     1
102
RTVSPropertyOp40
 70
     1
102
RTVSPropertyOp41
 70
     1
102
RTVSPropertyOp42
 70
     1
102
RTVSPropertyOp43
 70
     1
102
RTVSPropertyOp44
 70
     1
102
RTVSPropertyOp45
 70
     1
102
RTVSPropertyOp46
 70
     1
102
RTVSPropertyOp47
 70
     1
102
RTVSPropertyOp48
 70
     1
102
RTVSPropertyOp49
 70
     1
102
RTVSPropertyOp50
 70
     1
102
RTVSPropertyOp51
 70
     0
102
RTVSPropertyOp52
 70
     0
102
RTVSPropertyOp53
 70
     1
102
RTVSPropertyOp54
 70
     1
102
RTVSPropertyOp55
 70
     1
102
RTVSPropertyOp56
 70
     1
102
RTVSPropertyOp57
 70
     1
102
RTVSPost2010Prop28
280
     0
102
RTVSPost2010PropOp28
 70
     1
102
RTVSPost2010Prop29
280
     1
102
RTVSPost2010PropOp29
 70
     1
102
RTVSPost2010Prop30
280
     1
102
RTVSPost2010PropOp30
 70
     1
102
RTVSPost2010Prop31
280
     0
102
RTVSPost2010PropOp31
 70
     1
102
RTVSPost2010Prop32
280
     0
102
RTVSPost2010PropOp32
 70
     1
102
RTVSPost2010Prop33
280
     0
102
RTVSPost2010PropOp33
 70
     1
102
RTVSPost2010Prop34
280
     0
102
RTVSPost2010PropOp34
 70
     1
102
RTVSPost2010Prop35
280
     0
102
RTVSPost2010PropOp35
 70
     1
102
RTVSPost2010Prop36
280
     0
102
RTVSPost2010PropOp36
 70
     1
102
RTVSPost2010Prop37
 90
       50
102
RTVSPost2010PropOp37
 70
     1
102
RTVSPost2010Prop38
140
0.0
102
RTVSPost2010PropOp38
 70
     1
102
RTVSPost2010Prop39
140
1.0
102
RTVSPost2010PropOp39
 70
     1
102
RTVSPost2010Prop40
 90
        0
102
RTVSPost2010PropOp40
 70
     1
102
RTVSPost2010Prop41ColorIndex
 90
       18
102
RTVSPost2010Prop41ColorRGB
 90
        0
102
RTVSPost2010PropOp41
 70
     1
102
RTVSPost2010Prop42
 90
       50
102
RTVSPost2010PropOp42
 70
     1
102
RTVSPost2010Prop43
 90
        3
102
RTVSPost2010PropOp43
 70
     1
102
RTVSPost2010Prop44ColorIndex
 90
        5
102
RTVSPost2010Prop44ColorRGB
 90
      255
102
RTVSPost2010PropOp44
 70
     1
102
RTVSPost2010Prop45
280
     0
102
RTVSPost2010PropOp45
 70
     1
102
RTVSPost2010Prop46
 90
       50
102
RTVSPost2010PropOp46
 70
     1
102
RTVSPost2010Prop47
 90
       50
102
RTVSPost2010PropOp47
 70
     1
102
RTVSPost2010Prop48
 90
       50
102
RTVSPost2010PropOp48
 70
     1
102
RTVSPost2010Prop49
280
     0
102
RTVSPost2010PropOp49
 70
     1
102
RTVSPost2010Prop50
 90
       50
102
RTVSPost2010PropOp50
 70
     1
102
RTVSPost2010Prop51ColorIndex
 90
      256
102
RTVSPost2010Prop51ColorRGB
 90
-16777216
102
RTVSPost2010PropOp51
 70
     0
102
RTVSPost2010Prop52
140
1.0
102
RTVSPost2010PropOp52
 70
     0
102
RTVSPost2010Prop53
 90
        2
102
RTVSPost2010PropOp53
 70
     1
102
RTVSPost2010Prop54
  1
strokes_ogs.tif
102
RTVSPost2010PropOp54
 70
     1
102
RTVSPost2010Prop55
280
     0
102
RTVSPost2010PropOp55
 70
     1
102
RTVSPost2010Prop56
140
1.0
102
RTVSPost2010PropOp56
 70
     1
102
RTVSPost2010Prop57
140
1.0
102
RTVSPost2010PropOp57
 70
     1
  0
XRECORD
  5
317
102
{ACAD_REACTORS
330
316
102
}
330
316
100
AcDbXrecord
280
     1
102
RTVSPropertyOp0
 70
     1
102
RTVSPropertyOp1
 70
     1
102
RTVSPropertyOp2
 70
     1
102
RTVSPropertyOp3
 70
     1
102
RTVSPropertyOp4
 70
     1
102
RTVSPropertyOp5
 70
     1
102
RTVSPropertyOp6
 70
     1
102
RTVSPropertyOp7
 70
     1
102
RTVSPropertyOp8
 70
     1
102
RTVSPropertyOp9
 70
     1
102
RTVSPropertyOp10
 70
     1
102
RTVSPropertyOp11
 70
     1
102
RTVSPropertyOp12
 70
     1
102
RTVSPropertyOp13
 70
     1
102
RTVSPropertyOp14
 70
     1
102
RTVSPropertyOp15
 70
     1
102
RTVSPropertyOp16
 70
     1
102
RTVSPropertyOp17
 70
     1
102
RTVSPropertyOp18
 70
     1
102
RTVSPropertyOp19
 70
     1
102
RTVSPropertyOp20
 70
     1
102
RTVSPropertyOp21
 70
     1
102
RTVSPropertyOp22
 70
     1
102
RTVSPropertyOp23
 70
     1
102
RTVSPropertyOp24
 70
     1
102
RTVSPropertyOp25
 70
     1
102
RTVSPropertyOp26
 70
     1
102
RTVSPropertyOp27
 70
     1
102
RTVSPropertyOp28
 70
     1
102
RTVSPropertyOp29
 70
     1
102
RTVSPropertyOp30
 70
     1
102
RTVSPropertyOp31
 70
     1
102
RTVSPropertyOp32
 70
     1
102
RTVSPropertyOp33
 70
     1
102
RTVSPropertyOp34
 70
     1
102
RTVSPropertyOp35
 70
     1
102
RTVSPropertyOp36
 70
     1
102
RTVSPropertyOp37
 70
     1
102
RTVSPropertyOp38
 70
     1
102
RTVSPropertyOp39
 70
     1
102
RTVSPropertyOp40
 70
     1
102
RTVSPropertyOp41
 70
     1
102
RTVSPropertyOp42
 70
     1
102
RTVSPropertyOp43
 70
     1
102
RTVSPropertyOp44
 70
     1
102
RTVSPropertyOp45
 70
     1
102
RTVSPropertyOp46
 70
     1
102
RTVSPropertyOp47
 70
     1
102
RTVSPropertyOp48
 70
     1
102
RTVSPropertyOp49
 70
     1
102
RTVSPropertyOp50
 70
     1
102
RTVSPropertyOp51
 70
     0
102
RTVSPropertyOp52
 70
     0
102
RTVSPropertyOp53
 70
     1
102
RTVSPropertyOp54
 70
     1
102
RTVSPropertyOp55
 70
     1
102
RTVSPropertyOp56
 70
     1
102
RTVSPropertyOp57
 70
     1
102
RTVSPost2010Prop28
280
     0
102
RTVSPost2010PropOp28
 70
     1
102
RTVSPost2010Prop29
280
     1
102
RTVSPost2010PropOp29
 70
     1
102
RTVSPost2010Prop30
280
     1
102
RTVSPost2010PropOp30
 70
     1
102
RTVSPost2010Prop31
280
     0
102
RTVSPost2010PropOp31
 70
     1
102
RTVSPost2010Prop32
280
     0
102
RTVSPost2010PropOp32
 70
     1
102
RTVSPost2010Prop33
280
     0
102
RTVSPost2010PropOp33
 70
     1
102
RTVSPost2010Prop34
280
     0
102
RTVSPost2010PropOp34
 70
     1
102
RTVSPost2010Prop35
280
     0
102
RTVSPost2010PropOp35
 70
     1
102
RTVSPost2010Prop36
280
     0
102
RTVSPost2010PropOp36
 70
     1
102
RTVSPost2010Prop37
 90
       50
102
RTVSPost2010PropOp37
 70
     1
102
RTVSPost2010Prop38
140
0.0
102
RTVSPost2010PropOp38
 70
     1
102
RTVSPost2010Prop39
140
1.0
102
RTVSPost2010PropOp39
 70
     1
102
RTVSPost2010Prop40
 90
        0
102
RTVSPost2010PropOp40
 70
     1
102
RTVSPost2010Prop41ColorIndex
 90
       18
102
RTVSPost2010Prop41ColorRGB
 90
        0
102
RTVSPost2010PropOp41
 70
     1
102
RTVSPost2010Prop42
 90
       50
102
RTVSPost2010PropOp42
 70
     1
102
RTVSPost2010Prop43
 90
        3
102
RTVSPost2010PropOp43
 70
     1
102
RTVSPost2010Prop44ColorIndex
 90
        5
102
RTVSPost2010Prop44ColorRGB
 90
      255
102
RTVSPost2010PropOp44
 70
     1
102
RTVSPost2010Prop45
280
     0
102
RTVSPost2010PropOp45
 70
     1
102
RTVSPost2010Prop46
 90
       50
102
RTVSPost2010PropOp46
 70
     1
102
RTVSPost2010Prop47
 90
       50
102
RTVSPost2010PropOp47
 70
     1
102
RTVSPost2010Prop48
 90
       50
102
RTVSPost2010PropOp48
 70
     1
102
RTVSPost2010Prop49
280
     0
102
RTVSPost2010PropOp49
 70
     1
102
RTVSPost2010Prop50
 90
       50
102
RTVSPost2010PropOp50
 70
     1
102
RTVSPost2010Prop51ColorIndex
 90
      256
102
RTVSPost2010Prop51ColorRGB
 90
-16777216
102
RTVSPost2010PropOp51
 70
     0
102
RTVSPost2010Prop52
140
1.0
102
RTVSPost2010PropOp52
 70
     0
102
RTVSPost2010Prop53
 90
        2
102
RTVSPost2010PropOp53
 70
     1
102
RTVSPost2010Prop54
  1
strokes_ogs.tif
102
RTVSPost2010PropOp54
 70
     1
102
RTVSPost2010Prop55
280
     0
102
RTVSPost2010PropOp55
 70
     1
102
RTVSPost2010Prop56
140
1.0
102
RTVSPost2010PropOp56
 70
     1
102
RTVSPost2010Prop57
140
1.0
102
RTVSPost2010PropOp57
 70
     1
  0
ENDSEC
  0
EOF
