  0
SECTION
  2
HEADER
  9
$ACADVER
  1
AC1018
  9
$ACADMAINTVER
 70
     0
  9
$DWGCODEPAGE
  3
ANSI_1252
  9
$INSBASE
 10
0.0
 20
0.0
 30
0.0
  9
$EXTMIN
 10
-85.5
 20
-21.0
 30
0.0
  9
$EXTMAX
 10
131.7074275274956
 20
109.9574275274956
 30
15.00000000000002
  9
$LIMMIN
 10
0.0
 20
0.0
  9
$LIMMAX
 10
12.0
 20
9.0
  9
$ORTHOMODE
 70
     0
  9
$REGENMODE
 70
     1
  9
$FILLMODE
 70
     1
  9
$QTEXTMODE
 70
     0
  9
$MIRRTEXT
 70
     1
  9
$LTSCALE
 40
0.0393700787401575
  9
$ATTMODE
 70
     1
  9
$TEXTSIZE
 40
0.2
  9
$TRACEWID
 40
0.05
  9
$TEXTSTYLE
  7
Standard
  9
$CLAYER
  8
AL Base
  9
$CELTYPE
  6
ByLayer
  9
$CECOLOR
 62
   256
  9
$CELTSCALE
 40
1.0
  9
$DISPSILH
 70
     0
  9
$DIMSCALE
 40
1.0
  9
$DIMASZ
 40
0.18
  9
$DIMEXO
 40
0.0625
  9
$DIMDLI
 40
0.38
  9
$DIMRND
 40
0.0
  9
$DIMDLE
 40
0.0
  9
$DIMEXE
 40
0.18
  9
$DIMTP
 40
0.0
  9
$DIMTM
 40
0.0
  9
$DIMTXT
 40
0.18
  9
$DIMCEN
 40
0.09
  9
$DIMTSZ
 40
0.0
  9
$DIMTOL
 70
     0
  9
$DIMLIM
 70
     0
  9
$DIMTIH
 70
     1
  9
$DIMTOH
 70
     1
  9
$DIMSE1
 70
     0
  9
$DIMSE2
 70
     0
  9
$DIMTAD
 70
     0
  9
$DIMZIN
 70
     0
  9
$DIMBLK
  1

  9
$DIMASO
 70
     1
  9
$DIMSHO
 70
     1
  9
$DIMPOST
  1

  9
$DIMAPOST
  1

  9
$DIMALT
 70
     0
  9
$DIMALTD
 70
     2
  9
$DIMALTF
 40
25.4
  9
$DIMLFAC
 40
1.0
  9
$DIMTOFL
 70
     0
  9
$DIMTVP
 40
0.0
  9
$DIMTIX
 70
     0
  9
$DIMSOXD
 70
     0
  9
$DIMSAH
 70
     0
  9
$DIMBLK1
  1

  9
$DIMBLK2
  1

  9
$DIMSTYLE
  2
Standard
  9
$DIMCLRD
 70
     0
  9
$DIMCLRE
 70
     0
  9
$DIMCLRT
 70
     0
  9
$DIMTFAC
 40
1.0
  9
$DIMGAP
 40
0.09
  9
$DIMJUST
 70
     0
  9
$DIMSD1
 70
     0
  9
$DIMSD2
 70
     0
  9
$DIMTOLJ
 70
     1
  9
$DIMTZIN
 70
     0
  9
$DIMALTZ
 70
     0
  9
$DIMALTTZ
 70
     0
  9
$DIMUPT
 70
     0
  9
$DIMDEC
 70
     4
  9
$DIMTDEC
 70
     4
  9
$DIMALTU
 70
     2
  9
$DIMALTTD
 70
     2
  9
$DIMTXSTY
  7
Standard
  9
$DIMAUNIT
 70
     0
  9
$DIMADEC
 70
     0
  9
$DIMALTRND
 40
0.0
  9
$DIMAZIN
 70
     0
  9
$DIMDSEP
 70
    46
  9
$DIMATFIT
 70
     3
  9
$DIMFRAC
 70
     0
  9
$DIMLDRBLK
  1

  9
$DIMLUNIT
 70
     2
  9
$DIMLWD
 70
    -2
  9
$DIMLWE
 70
    -2
  9
$DIMTMOVE
 70
     2
  9
$LUNITS
 70
     2
  9
$LUPREC
 70
     3
  9
$SKETCHINC
 40
0.1
  9
$FILLETRAD
 40
0.5
  9
$AUNITS
 70
     0
  9
$AUPREC
 70
     0
  9
$MENU
  1
.
  9
$ELEVATION
 40
0.0
  9
$PELEVATION
 40
0.0
  9
$THICKNESS
 40
0.0
  9
$LIMCHECK
 70
     0
  9
$CHAMFERA
 40
0.0
  9
$CHAMFERB
 40
0.0
  9
$CHAMFERC
 40
0.0
  9
$CHAMFERD
 40
0.0
  9
$SKPOLY
 70
     0
  9
$TDCREATE
 40
2457798.588060127
  9
$TDUCREATE
 40
2457798.921393461
  9
$TDUPDATE
 40
2457798.588071134
  9
$TDUUPDATE
 40
2457798.921404467
  9
$TDINDWG
 40
0.0000000116
  9
$TDUSRTIMER
 40
0.0000000116
  9
$USRTIMER
 70
     1
  9
$ANGBASE
 50
0.0
  9
$ANGDIR
 70
     0
  9
$PDMODE
 70
     0
  9
$PDSIZE
 40
0.0
  9
$PLINEWID
 40
0.0
  9
$SPLFRAME
 70
     0
  9
$SPLINETYPE
 70
     6
  9
$SPLINESEGS
 70
     8
  9
$HANDSEED
  5
381
  9
$SURFTAB1
 70
     6
  9
$SURFTAB2
 70
     6
  9
$SURFTYPE
 70
     6
  9
$SURFU
 70
     6
  9
$SURFV
 70
     6
  9
$UCSBASE
  2

  9
$UCSNAME
  2

  9
$UCSORG
 10
0.0
 20
0.0
 30
0.0
  9
$UCSXDIR
 10
1.0
 20
0.0
 30
0.0
  9
$UCSYDIR
 10
0.0
 20
1.0
 30
0.0
  9
$UCSORTHOREF
  2

  9
$UCSORTHOVIEW
 70
     0
  9
$UCSORGTOP
 10
0.0
 20
0.0
 30
0.0
  9
$UCSORGBOTTOM
 10
0.0
 20
0.0
 30
0.0
  9
$UCSORGLEFT
 10
0.0
 20
0.0
 30
0.0
  9
$UCSORGRIGHT
 10
0.0
 20
0.0
 30
0.0
  9
$UCSORGFRONT
 10
0.0
 20
0.0
 30
0.0
  9
$UCSORGBACK
 10
0.0
 20
0.0
 30
0.0
  9
$PUCSBASE
  2

  9
$PUCSNAME
  2

  9
$PUCSORG
 10
0.0
 20
0.0
 30
0.0
  9
$PUCSXDIR
 10
1.0
 20
0.0
 30
0.0
  9
$PUCSYDIR
 10
0.0
 20
1.0
 30
0.0
  9
$PUCSORTHOREF
  2

  9
$PUCSORTHOVIEW
 70
     0
  9
$PUCSORGTOP
 10
0.0
 20
0.0
 30
0.0
  9
$PUCSORGBOTTOM
 10
0.0
 20
0.0
 30
0.0
  9
$PUCSORGLEFT
 10
0.0
 20
0.0
 30
0.0
  9
$PUCSORGRIGHT
 10
0.0
 20
0.0
 30
0.0
  9
$PUCSORGFRONT
 10
0.0
 20
0.0
 30
0.0
  9
$PUCSORGBACK
 10
0.0
 20
0.0
 30
0.0
  9
$USERI1
 70
     0
  9
$USERI2
 70
     0
  9
$USERI3
 70
     0
  9
$USERI4
 70
     0
  9
$USERI5
 70
     0
  9
$USERR1
 40
0.0
  9
$USERR2
 40
0.0
  9
$USERR3
 40
0.0
  9
$USERR4
 40
0.0
  9
$USERR5
 40
0.0
  9
$WORLDVIEW
 70
     1
  9
$SHADEDGE
 70
     3
  9
$SHADEDIF
 70
    70
  9
$TILEMODE
 70
     1
  9
$MAXACTVP
 70
    64
  9
$PINSBASE
 10
0.0
 20
0.0
 30
0.0
  9
$PLIMCHECK
 70
     0
  9
$PEXTMIN
 10
1.000000000000000E+20
 20
1.000000000000000E+20
 30
1.000000000000000E+20
  9
$PEXTMAX
 10
-1.000000000000000E+20
 20
-1.000000000000000E+20
 30
-1.000000000000000E+20
  9
$PLIMMIN
 10
0.0
 20
0.0
  9
$PLIMMAX
 10
12.0
 20
9.0
  9
$UNITMODE
 70
     0
  9
$VISRETAIN
 70
     1
  9
$PLINEGEN
 70
     0
  9
$PSLTSCALE
 70
     1
  9
$TREEDEPTH
 70
  3020
  9
$CMLSTYLE
  2
Standard
  9
$CMLJUST
 70
     0
  9
$CMLSCALE
 40
1.0
  9
$PROXYGRAPHICS
 70
     1
  9
$MEASUREMENT
 70
     0
  9
$CELWEIGHT
370
    -1
  9
$ENDCAPS
280
     0
  9
$JOINSTYLE
280
     0
  9
$LWDISPLAY
290
     0
  9
$INSUNITS
 70
     1
  9
$HYPERLINKBASE
  1

  9
$STYLESHEET
  1

  9
$XEDIT
290
     1
  9
$CEPSNTYPE
380
     0
  9
$PSTYLEMODE
290
     1
  9
$FINGERPRINTGUID
  2
{67966E6C-F1EA-42F0-BD83-262E4E5B54FD}
  9
$VERSIONGUID
  2
{FAEB1C32-E019-11D5-929B-00C0DF256EC4}
  9
$EXTNAMES
290
     1
  9
$PSVPSCALE
 40
0.0
  9
$OLESTARTUP
290
     0
  9
$SORTENTS
280
   127
  9
$INDEXCTL
280
     0
  9
$HIDETEXT
280
     1
  9
$XCLIPFRAME
290
     0
  9
$HALOGAP
280
     0
  9
$OBSCOLOR
 70
   257
  9
$OBSLTYPE
280
     0
  9
$INTERSECTIONDISPLAY
280
     0
  9
$INTERSECTIONCOLOR
 70
   257
  9
$DIMASSOC
280
     2
  9
$PROJECTNAME
  1

  0
ENDSEC
  0
SECTION
  2
CLASSES
  0
CLASS
  1
ACDBDICTIONARYWDFLT
  2
AcDbDictionaryWithDefault
  3
ObjectDBX Classes
 90
        0
 91
        4
280
     0
281
     0
  0
CLASS
  1
VISUALSTYLE
  2
AcDbVisualStyle
  3
ObjectDBX Classes
 90
     4095
 91
        4
280
     0
281
     0
  0
CLASS
  1
MATERIAL
  2
AcDbMaterial
  3
ObjectDBX Classes
 90
     1153
 91
        4
280
     0
281
     0
  0
CLASS
  1
SCALE
  2
AcDbScale
  3
ObjectDBX Classes
 90
     1153
 91
        4
280
     0
281
     0
  0
CLASS
  1
SUN
  2
AcDbSun
  3
SCENEOE
 90
     1153
 91
        4
280
     0
281
     0
  0
CLASS
  1
DICTIONARYVAR
  2
AcDbDictionaryVar
  3
ObjectDBX Classes
 90
        0
 91
        4
280
     0
281
     0
  0
ENDSEC
  0
SECTION
  2
TABLES
  0
TABLE
  2
VPORT
  5
8
330
0
100
AcDbSymbolTable
 70
     1
  0
VPORT
  5
29
330
8
100
AcDbSymbolTableRecord
100
AcDbViewportTableRecord
  2
*Active
 70
     0
 10
0.0
 20
0.0
 11
1.0
 21
1.0
 12
0.0
 22
0.0
 13
0.0
 23
0.0
 14
0.5
 24
0.5
 15
0.5
 25
0.5
 16
0.0
 26
0.0
 36
1.0
 17
0.0
 27
0.0000000000000036
 37
0.0
 40
42.84000000000001
 41
0.9999999999999999
 42
50.0
 43
0.0
 44
0.0
 50
0.0
 51
0.0
 71
     0
 72
   100
 73
     1
 74
     3
 75
     0
 76
     0
 77
     0
 78
     0
281
     0
 65
     1
110
0.0
120
0.0
130
0.0
111
1.0
121
0.0
131
0.0
112
0.0
122
1.0
132
0.0
 79
     0
146
0.0
  0
ENDTAB
  0
TABLE
  2
LTYPE
  5
5
330
0
100
AcDbSymbolTable
 70
     1
  0
LTYPE
  5
14
330
5
100
AcDbSymbolTableRecord
100
AcDbLinetypeTableRecord
  2
ByBlock
 70
     0
  3

 72
    65
 73
     0
 40
0.0
  0
LTYPE
  5
15
330
5
100
AcDbSymbolTableRecord
100
AcDbLinetypeTableRecord
  2
ByLayer
 70
     0
  3

 72
    65
 73
     0
 40
0.0
  0
LTYPE
  5
16
330
5
100
AcDbSymbolTableRecord
100
AcDbLinetypeTableRecord
  2
Continuous
 70
     0
  3
Solid line
 72
    65
 73
     0
 40
0.0
  0
ENDTAB
  0
TABLE
  2
LAYER
  5
2
330
0
100
AcDbSymbolTable
 70
     5
  0
LAYER
  5
10
330
2
100
AcDbSymbolTableRecord
100
AcDbLayerTableRecord
  2
0
 70
     0
 62
     7
  6
Continuous
370
    -3
390
F
  0
LAYER
  5
6A
330
2
100
AcDbSymbolTableRecord
100
AcDbLayerTableRecord
  2
Make2D$visible$lines
 70
     0
 62
    18
420
        0
  6
Continuous
370
    -3
390
F
  0
LAYER
  5
F9
330
2
100
AcDbSymbolTableRecord
100
AcDbLayerTableRecord
  2
AL Base
 70
     0
 62
    18
420
        0
  6
Continuous
370
    -3
390
F
  0
LAYER
  5
1CC
330
2
100
AcDbSymbolTableRecord
100
AcDbLayerTableRecord
  2
Glass Leg
 70
     0
 62
    18
420
        0
  6
Continuous
370
    -3
390
F
  0
LAYER
  5
1CE
330
2
100
AcDbSymbolTableRecord
100
AcDbLayerTableRecord
  2
Glass Top
 70
     0
 62
    18
420
        0
  6
Continuous
370
    -3
390
F
  0
ENDTAB
  0
TABLE
  2
STYLE
  5
3
330
0
100
AcDbSymbolTable
 70
     1
  0
STYLE
  5
11
330
3
100
AcDbSymbolTableRecord
100
AcDbTextStyleTableRecord
  2
Standard
 70
     0
 40
0.0
 41
1.0
 50
0.0
 71
     0
 42
0.2
  3
txt
  4

  0
ENDTAB
  0
TABLE
  2
VIEW
  5
6
330
0
100
AcDbSymbolTable
 70
     0
  0
ENDTAB
  0
TABLE
  2
UCS
  5
7
330
0
100
AcDbSymbolTable
 70
     0
  0
ENDTAB
  0
TABLE
  2
APPID
  5
9
330
0
100
AcDbSymbolTable
 70
     1
  0
APPID
  5
12
330
9
100
AcDbSymbolTableRecord
100
AcDbRegAppTableRecord
  2
ACAD
 70
     0
  0
ENDTAB
  0
TABLE
  2
DIMSTYLE
  5
A
330
0
100
AcDbSymbolTable
 70
     1
100
AcDbDimStyleTable
  0
DIMSTYLE
105
27
330
A
100
AcDbSymbolTableRecord
100
AcDbDimStyleTableRecord
  2
Standard
 70
     0
178
     0
340
11
  0
ENDTAB
  0
TABLE
  2
BLOCK_RECORD
  5
1
330
0
100
AcDbSymbolTable
 70
     1
  0
BLOCK_RECORD
  5
1F
330
1
100
AcDbSymbolTableRecord
100
AcDbBlockTableRecord
  2
*Model_Space
340
22
  0
BLOCK_RECORD
  5
1B
330
1
100
AcDbSymbolTableRecord
100
AcDbBlockTableRecord
  2
*Paper_Space
340
1E
  0
BLOCK_RECORD
  5
23
330
1
100
AcDbSymbolTableRecord
100
AcDbBlockTableRecord
  2
*Paper_Space0
340
26
  0
ENDTAB
  0
ENDSEC
  0
SECTION
  2
BLOCKS
  0
BLOCK
  5
20
330
1F
100
AcDbEntity
  8
0
100
AcDbBlockBegin
  2
*Model_Space
 70
     0
 10
0.0
 20
0.0
 30
0.0
  3
*Model_Space
  1
*Model_Space
  0
ENDBLK
  5
21
330
1F
100
AcDbEntity
  8
0
100
AcDbBlockEnd
  0
BLOCK
  5
1C
330
1B
100
AcDbEntity
 67
     1
  8
0
100
AcDbBlockBegin
  2
*Paper_Space
 70
     0
 10
0.0
 20
0.0
 30
0.0
  3
*Paper_Space
  1
*Paper_Space
  0
ENDBLK
  5
1D
330
1B
100
AcDbEntity
 67
     1
  8
0
100
AcDbBlockEnd
  0
BLOCK
  5
24
330
23
100
AcDbEntity
  8
0
100
AcDbBlockBegin
  2
*Paper_Space0
 70
     0
 10
0.0
 20
0.0
 30
0.0
  3
*Paper_Space0
  1
*Paper_Space0
  0
ENDBLK
  5
25
330
23
100
AcDbEntity
  8
0
100
AcDbBlockEnd
  0
ENDSEC
  0
SECTION
  2
ENTITIES
  0
LINE
  5
6B
330
1F
100
AcDbEntity
  8
Make2D$visible$lines
 60
     1
100
AcDbLine
 10
129.9647868403763
 20
52.625
 30
0.0
 11
129.9647868403763
 21
38.0
 31
0.0
  0
LINE
  5
6C
330
1F
100
AcDbEntity
  8
Make2D$visible$lines
 60
     1
100
AcDbLine
 10
120.9647868403763
 20
51.375
 30
0.0
 11
120.9647868403763
 21
39.25
 31
0.0
  0
LINE
  5
6D
330
1F
100
AcDbEntity
  8
Make2D$visible$lines
 60
     1
100
AcDbLine
 10
129.9647868403763
 20
38.0
 30
0.0
 11
129.6930510862904
 21
38.0
 31
0.0
  0
LINE
  5
6E
330
1F
100
AcDbEntity
  8
Make2D$visible$lines
 60
     1
100
AcDbLine
 10
129.7074275274956
 20
53.0
 30
0.0
 11
131.7074275274956
 21
53.0
 31
0.0
  0
LINE
  5
6F
330
1F
100
AcDbEntity
  8
Make2D$visible$lines
 60
     1
100
AcDbLine
 10
131.7074275274956
 20
52.625
 30
0.0
 11
131.7074275274956
 21
53.0
 31
0.0
  0
LINE
  5
70
330
1F
100
AcDbEntity
  8
Make2D$visible$lines
 60
     1
100
AcDbLine
 10
129.7074275274956
 20
52.625
 30
0.0
 11
131.7074275274956
 21
52.625
 31
0.0
  0
LINE
  5
71
330
1F
100
AcDbEntity
  8
Make2D$visible$lines
 60
     1
100
AcDbLine
 10
91.70742752749558
 20
53.0
 30
0.0
 11
129.7074275274956
 21
53.0
 31
0.0
  0
LINE
  5
72
330
1F
100
AcDbEntity
  8
Make2D$visible$lines
 60
     1
100
AcDbLine
 10
91.70742752749558
 20
52.625
 30
0.0
 11
129.7074275274956
 21
52.625
 31
0.0
  0
LINE
  5
73
330
1F
100
AcDbEntity
  8
Make2D$visible$lines
 60
     1
100
AcDbLine
 10
89.70742752749558
 20
53.0
 30
0.0
 11
91.70742752749558
 21
53.0
 31
0.0
  0
LINE
  5
74
330
1F
100
AcDbEntity
  8
Make2D$visible$lines
 60
     1
100
AcDbLine
 10
89.70742752749558
 20
52.625
 30
0.0
 11
91.70742752749558
 21
52.625
 31
0.0
  0
LINE
  5
75
330
1F
100
AcDbEntity
  8
Make2D$visible$lines
 60
     1
100
AcDbLine
 10
99.31805108054459
 20
51.375
 30
0.0
 11
99.31805108054459
 21
39.25
 31
0.0
  0
LINE
  5
76
330
1F
100
AcDbEntity
  8
Make2D$visible$lines
 60
     1
100
AcDbLine
 10
100.5680510805446
 20
39.25
 30
0.0
 11
100.5680510805446
 21
51.375
 31
0.0
  0
LINE
  5
77
330
1F
100
AcDbEntity
  8
Make2D$visible$lines
 60
     1
100
AcDbLine
 10
129.6930510805446
 20
38.0
 30
0.0
 11
92.06805108054459
 21
38.0
 31
0.0
  0
LINE
  5
78
330
1F
100
AcDbEntity
  8
Make2D$visible$lines
 60
     1
100
AcDbLine
 10
129.6930510805446
 20
52.625
 30
0.0
 11
129.6930510805446
 21
38.0
 31
0.0
  0
LINE
  5
79
330
1F
100
AcDbEntity
  8
Make2D$visible$lines
 60
     1
100
AcDbLine
 10
128.4430510805446
 20
51.375
 30
0.0
 11
92.06805108054459
 21
51.375
 31
0.0
  0
LINE
  5
7A
330
1F
100
AcDbEntity
  8
Make2D$visible$lines
 60
     1
100
AcDbLine
 10
128.4430510805446
 20
39.25
 30
0.0
 11
128.4430510805446
 21
51.375
 31
0.0
  0
LINE
  5
7B
330
1F
100
AcDbEntity
  8
Make2D$visible$lines
 60
     1
100
AcDbLine
 10
92.06805108054459
 20
39.25
 30
0.0
 11
128.4430510805446
 21
39.25
 31
0.0
  0
LINE
  5
7C
330
1F
100
AcDbEntity
  8
Make2D$visible$lines
 60
     1
100
AcDbLine
 10
92.06805108054459
 20
52.625
 30
0.0
 11
92.06805108054459
 21
38.0
 31
0.0
  0
LINE
  5
7D
330
1F
100
AcDbEntity
  8
Make2D$visible$lines
 60
     1
100
AcDbLine
 10
91.69305108054459
 20
38.0
 30
0.0
 11
92.06805108054459
 21
38.0
 31
0.0
  0
LINE
  5
7E
330
1F
100
AcDbEntity
  8
Make2D$visible$lines
 60
     1
100
AcDbLine
 10
91.69305108054459
 20
52.625
 30
0.0
 11
91.69305108054459
 21
38.0
 31
0.0
  0
LINE
  5
7F
330
1F
100
AcDbEntity
  8
Make2D$visible$lines
 60
     1
100
AcDbLine
 10
92.94305108054459
 20
39.25
 30
0.0
 11
92.94305108054459
 21
51.37499999999999
 31
0.0
  0
LINE
  5
80
330
1F
100
AcDbEntity
  8
Make2D$visible$lines
 60
     1
100
AcDbLine
 10
111.4371842748311
 20
70.67632789160974
 30
0.0
 11
116.6251192093933
 21
69.35675784535225
 31
0.0
  0
LINE
  5
81
330
1F
100
AcDbEntity
  8
Make2D$visible$lines
 60
     1
100
AcDbLine
 10
111.6186540032217
 20
70.78633045904728
 30
0.0
 11
116.6290344232708
 21
69.51886210431876
 31
0.0
  0
LINE
  5
82
330
1F
100
AcDbEntity
  8
Make2D$visible$lines
 60
     1
100
AcDbLine
 10
111.4371842748311
 20
70.67632789160974
 30
0.0
 11
111.6186540032217
 21
70.78633045904728
 31
0.0
  0
LINE
  5
83
330
1F
100
AcDbEntity
  8
Make2D$visible$lines
 60
     1
100
AcDbLine
 10
116.6251192093933
 20
69.35675784535225
 30
0.0
 11
116.8970564782135
 21
80.61596125717061
 31
0.0
  0
LINE
  5
84
330
1F
100
AcDbEntity
  8
Make2D$visible$lines
 60
     1
100
AcDbLine
 10
116.8970564782135
 20
80.61596125717061
 30
0.0
 11
111.5210165736756
 21
81.4673396803056
 31
0.0
  0
LINE
  5
85
330
1F
100
AcDbEntity
  8
Make2D$visible$lines
 60
     1
100
AcDbLine
 10
111.5210165736756
 20
81.4673396803056
 30
0.0
 11
111.5258151804331
 21
82.08502311262272
 31
0.0
  0
LINE
  5
86
330
1F
100
AcDbEntity
  8
Make2D$visible$lines
 60
     1
100
AcDbLine
 10
118.0316558433471
 20
81.15531045623364
 30
0.0
 11
117.6679130557204
 21
67.9574275274956
 31
0.0
  0
LINE
  5
87
330
1F
100
AcDbEntity
  8
Make2D$visible$lines
 60
     1
100
AcDbLine
 10
117.6679130557204
 20
67.9574275274956
 30
0.0
 11
117.8335824658789
 21
68.08410060151402
 31
0.0
  0
LINE
  5
88
330
1F
100
AcDbEntity
  8
Make2D$visible$lines
 60
     1
100
AcDbLine
 10
118.2004636861159
 20
81.15250698562583
 30
0.0
 11
117.8335824658789
 21
68.08410060151402
 31
0.0
  0
LINE
  5
89
330
1F
100
AcDbEntity
  8
Make2D$visible$lines
 60
     1
100
AcDbLine
 10
117.6679130557204
 20
67.9574275274956
 30
0.0
 11
111.4288530430487
 21
69.60391998181089
 31
0.0
  0
LINE
  5
8A
330
1F
100
AcDbEntity
  8
Make2D$visible$lines
 60
     1
100
AcDbLine
 10
111.4288530430487
 20
69.60391998181089
 30
0.0
 11
111.4371842748311
 21
70.67632789160974
 31
0.0
  0
LINE
  5
8B
330
1F
100
AcDbEntity
  8
Make2D$visible$lines
 60
     1
100
AcDbLine
 10
117.8650836351001
 20
69.2061806052031
 30
0.0
 11
129.3836888614
 21
77.70349325991423
 31
0.0
  0
LINE
  5
8C
330
1F
100
AcDbEntity
  8
Make2D$visible$lines
 60
     1
100
AcDbLine
 10
129.3836888614
 20
77.70349325991423
 30
0.0
 11
129.1289682090138
 21
77.74565716100739
 31
0.0
  0
LINE
  5
8D
330
1F
100
AcDbEntity
  8
Make2D$visible$lines
 60
     1
100
AcDbLine
 10
117.8741923538512
 20
69.53063558330433
 30
0.0
 11
129.1289682090138
 21
77.74565716100739
 31
0.0
  0
LINE
  5
8E
330
1F
100
AcDbEntity
  8
Make2D$visible$lines
 60
     1
100
AcDbLine
 10
129.3836888614
 20
77.70349325991423
 30
0.0
 11
129.9012983161901
 21
85.9568219235844
 31
0.0
  0
LINE
  5
8F
330
1F
100
AcDbEntity
  8
Make2D$visible$lines
 60
     1
100
AcDbLine
 10
129.1289682090138
 20
77.74565716100739
 30
0.0
 11
129.6296375537807
 21
85.83075423922972
 31
0.0
  0
LINE
  5
90
330
1F
100
AcDbEntity
  8
Make2D$visible$lines
 60
     1
100
AcDbLine
 10
129.9012983161901
 20
85.9568219235844
 30
0.0
 11
118.1826685772559
 21
80.51864048768262
 31
0.0
  0
LINE
  5
91
330
1F
100
AcDbEntity
  8
Make2D$visible$lines
 60
     1
100
AcDbLine
 10
130.1887496887684
 20
86.15335669648432
 30
0.0
 11
129.6129222618003
 21
77.090743290884
 31
0.0
  0
LINE
  5
92
330
1F
100
AcDbEntity
  8
Make2D$visible$lines
 60
     1
100
AcDbLine
 10
129.6129222618003
 20
77.090743290884
 30
0.0
 11
117.8335824658789
 21
68.08410060151402
 31
0.0
  0
LINE
  5
93
330
1F
100
AcDbEntity
  8
Make2D$visible$lines
 60
     1
100
AcDbLine
 10
111.224213770538
 20
82.13113050298774
 30
0.0
 11
111.138878887739
 21
69.68044437133338
 31
0.0
  0
LINE
  5
94
330
1F
100
AcDbEntity
  8
Make2D$visible$lines
 60
     1
100
AcDbLine
 10
111.138878887739
 20
69.68044437133338
 30
0.0
 11
111.4288530430487
 21
69.60391998181089
 31
0.0
  0
LINE
  5
95
330
1F
100
AcDbEntity
  8
Make2D$visible$lines
 60
     1
100
AcDbLine
 10
111.5210165736756
 20
81.4673396803056
 30
0.0
 11
111.4371842748311
 21
70.67632789160973
 31
0.0
  0
LINE
  5
96
330
1F
100
AcDbEntity
  8
Make2D$visible$lines
 60
     1
100
AcDbLine
 10
112.8243038379896
 20
70.4813390443353
 30
0.0
 11
116.711310051388
 21
72.92537602518125
 31
0.0
  0
LINE
  5
97
330
1F
100
AcDbEntity
  8
Make2D$visible$lines
 60
     1
100
AcDbLine
 10
117.9921046380408
 20
73.73070258315195
 30
0.0
 11
122.5391941056982
 21
76.58978080532279
 31
0.0
  0
LINE
  5
98
330
1F
100
AcDbEntity
  8
Make2D$visible$lines
 60
     1
100
AcDbLine
 10
122.3297264093956
 20
77.4705877403392
 30
0.0
 11
122.5742365083775
 21
77.42734003143615
 31
0.0
  0
LINE
  5
99
330
1F
100
AcDbEntity
  8
Make2D$visible$lines
 60
     1
100
AcDbLine
 10
122.5391941056982
 20
76.58978080532279
 30
0.0
 11
122.5742365083775
 21
77.42734003143615
 31
0.0
  0
LINE
  5
9A
330
1F
100
AcDbEntity
  8
Make2D$visible$lines
 60
     1
100
AcDbLine
 10
122.3297264093956
 20
77.4705877403392
 30
0.0
 11
118.0244689904718
 21
74.88352930829227
 31
0.0
  0
LINE
  5
9B
330
1F
100
AcDbEntity
  8
Make2D$visible$lines
 60
     1
100
AcDbLine
 10
116.7399617143862
 20
74.11166015941951
 30
0.0
 11
112.0390906728121
 21
71.28687481380608
 31
0.0
  0
LINE
  5
9C
330
1F
100
AcDbEntity
  8
Make2D$visible$lines
 60
     1
100
AcDbLine
 10
122.5742365083775
 20
77.42734003143615
 30
0.0
 11
118.0183529240171
 21
74.66567341259702
 31
0.0
  0
LINE
  5
9D
330
1F
100
AcDbEntity
  8
Make2D$visible$lines
 60
     1
100
AcDbLine
 10
116.7345467597914
 20
73.88746111565145
 30
0.0
 11
112.0367084688711
 21
71.03974498144727
 31
0.0
  0
LINE
  5
9E
330
1F
100
AcDbEntity
  8
Make2D$visible$lines
 60
     1
100
AcDbLine
 10
112.0367084688711
 20
71.03974498144727
 30
0.0
 11
112.1362858503431
 21
81.36990234801668
 31
0.0
  0
LINE
  5
9F
330
1F
100
AcDbEntity
  8
Make2D$visible$lines
 60
     1
100
AcDbLine
 10
129.1444834559462
 20
77.9962063075376
 30
0.0
 11
122.7457080581035
 21
79.04296201944356
 31
0.0
  0
LINE
  5
A0
330
1F
100
AcDbEntity
  8
Make2D$visible$lines
 60
     1
100
AcDbLine
 10
121.8267522607033
 20
79.19329113245512
 30
0.0
 11
118.1622899699719
 21
79.7927490904857
 31
0.0
  0
LINE
  5
A1
330
1F
100
AcDbEntity
  8
Make2D$visible$lines
 60
     1
100
AcDbLine
 10
116.8822314337696
 20
80.00214987439124
 30
0.0
 11
112.1305942465694
 21
80.7794553832365
 31
0.0
  0
LINE
  5
A2
330
1F
100
AcDbEntity
  8
Make2D$visible$lines
 60
     1
100
AcDbLine
 10
111.2159750873339
 20
80.92907507913503
 30
0.0
 11
108.8007569184217
 21
81.32417308721018
 31
0.0
  0
LINE
  5
A3
330
1F
100
AcDbEntity
  8
Make2D$visible$lines
 60
     1
100
AcDbLine
 10
108.8007569184217
 20
81.32417308721018
 30
0.0
 11
108.6796589227701
 21
81.28050517883948
 31
0.0
  0
LINE
  5
A4
330
1F
100
AcDbEntity
  8
Make2D$visible$lines
 60
     1
100
AcDbLine
 10
129.1398668773714
 20
77.92165513743844
 30
0.0
 11
122.7427099941328
 21
78.97184439796756
 31
0.0
  0
LINE
  5
A5
330
1F
100
AcDbEntity
  8
Make2D$visible$lines
 60
     1
100
AcDbLine
 10
121.8239748331048
 20
79.1226685557915
 30
0.0
 11
118.1603628737969
 21
79.72410541354499
 31
0.0
  0
LINE
  5
A6
330
1F
100
AcDbEntity
  8
Make2D$visible$lines
 60
     1
100
AcDbLine
 10
116.8805902610237
 20
79.93419928467942
 30
0.0
 11
112.1299641178017
 21
80.7140858260698
 31
0.0
  0
LINE
  5
A7
330
1F
100
AcDbEntity
  8
Make2D$visible$lines
 60
     1
100
AcDbLine
 10
111.2155304708093
 20
80.86420382584156
 30
0.0
 11
108.6796589227701
 21
81.28050517883948
 31
0.0
  0
LINE
  5
A8
330
1F
100
AcDbEntity
  8
Make2D$visible$lines
 60
     1
100
AcDbLine
 10
108.8007569184217
 20
81.32417308721018
 30
0.0
 11
108.800179897823
 21
82.50170528265544
 31
0.0
  0
LINE
  5
A9
330
1F
100
AcDbEntity
  8
Make2D$visible$lines
 60
     1
100
AcDbLine
 10
108.6796589227701
 20
81.28050517883948
 30
0.0
 11
108.6785952540573
 21
82.52029256523349
 31
0.0
  0
LINE
  5
AA
330
1F
100
AcDbEntity
  8
Make2D$visible$lines
 60
     1
100
AcDbLine
 10
108.0823611022602
 20
82.61144200909956
 30
0.0
 11
108.085643936381
 21
81.37802164915361
 31
0.0
  0
LINE
  5
AB
330
1F
100
AcDbEntity
  8
Make2D$visible$lines
 60
     1
100
AcDbLine
 10
108.2646499341058
 20
80.65283596706202
 30
0.0
 11
111.2106386498194
 21
80.15046841355155
 31
0.0
  0
LINE
  5
AC
330
1F
100
AcDbEntity
  8
Make2D$visible$lines
 60
     1
100
AcDbLine
 10
112.1230313621761
 20
79.99488177049942
 30
0.0
 11
116.8625356810021
 21
79.18667324722809
 31
0.0
  0
LINE
  5
AD
330
1F
100
AcDbEntity
  8
Make2D$visible$lines
 60
     1
100
AcDbLine
 10
118.1391634152723
 20
78.96897507744622
 30
0.0
 11
121.7934234701593
 21
78.34582887397548
 31
0.0
  0
LINE
  5
AE
330
1F
100
AcDbEntity
  8
Make2D$visible$lines
 60
     1
100
AcDbLine
 10
122.7097322967315
 20
78.18957443178776
 30
0.0
 11
128.4062893810739
 21
77.21816356703144
 31
0.0
  0
LINE
  5
AF
330
1F
100
AcDbEntity
  8
Make2D$visible$lines
 60
     1
100
AcDbLine
 10
105.6554657675088
 20
80.41984657838609
 30
0.0
 11
111.205756467006
 21
79.43813924810117
 31
0.0
  0
LINE
  5
B0
330
1F
100
AcDbEntity
  8
Make2D$visible$lines
 60
     1
100
AcDbLine
 10
112.1161125101879
 20
79.27712007826891
 30
0.0
 11
116.8445206137065
 21
78.44078318221709
 31
0.0
  0
LINE
  5
B1
330
1F
100
AcDbEntity
  8
Make2D$visible$lines
 60
     1
100
AcDbLine
 10
118.1180113970376
 20
78.21553457728189
 30
0.0
 11
121.7629447854378
 21
77.57083720564388
 31
0.0
  0
LINE
  5
B2
330
1F
100
AcDbEntity
  8
Make2D$visible$lines
 60
     1
100
AcDbLine
 10
105.790006367358
 20
80.46777850273287
 30
0.0
 11
111.2062723644444
 21
79.51341065965158
 31
0.0
  0
LINE
  5
B3
330
1F
100
AcDbEntity
  8
Make2D$visible$lines
 60
     1
100
AcDbLine
 10
112.116843609751
 20
79.35296434556315
 30
0.0
 11
116.8464240694929
 21
78.51959325476528
 31
0.0
  0
LINE
  5
B4
330
1F
100
AcDbEntity
  8
Make2D$visible$lines
 60
     1
100
AcDbLine
 10
118.1202462509201
 20
78.29514066539622
 30
0.0
 11
121.7661648613723
 21
77.65271514896494
 31
0.0
  0
LINE
  5
B5
330
1F
100
AcDbEntity
  8
Make2D$visible$lines
 60
     1
100
AcDbLine
 10
105.6554657675088
 20
80.41984657838609
 30
0.0
 11
105.790006367358
 21
80.46777850273287
 31
0.0
  0
LINE
  5
B6
330
1F
100
AcDbEntity
  8
Make2D$visible$lines
 60
     1
100
AcDbLine
 10
121.7629447854378
 20
77.57083720564388
 30
0.0
 11
121.9475871280236
 21
82.26579955206051
 31
0.0
  0
LINE
  5
B7
330
1F
100
AcDbEntity
  8
Make2D$visible$lines
 60
     1
100
AcDbLine
 10
122.7930875058271
 20
82.65816491909163
 30
0.0
 11
122.5742365083775
 21
77.42734003143613
 31
0.0
  0
LINE
  5
B8
330
1F
100
AcDbEntity
  8
Make2D$visible$lines
 60
     1
100
AcDbLine
 10
122.5391941056982
 20
76.58978080532277
 30
0.0
 11
122.6450978961039
 21
76.65637004288843
 31
0.0
  0
LINE
  5
B9
330
1F
100
AcDbEntity
  8
Make2D$visible$lines
 60
     1
100
AcDbLine
 10
122.9002076683925
 20
82.70787541361629
 30
0.0
 11
122.6450978961039
 21
76.65637004288843
 31
0.0
  0
LINE
  5
BA
330
1F
100
AcDbEntity
  8
Make2D$visible$lines
 60
     1
100
AcDbLine
 10
121.2561566434981
 20
76.82547237440818
 30
0.0
 11
118.0952879121078
 21
77.40611801642773
 31
0.0
  0
LINE
  5
BB
330
1F
100
AcDbEntity
  8
Make2D$visible$lines
 60
     1
100
AcDbLine
 10
116.8251661456192
 20
77.63943699649862
 30
0.0
 11
112.1086778363632
 21
78.50584702966728
 31
0.0
  0
LINE
  5
BC
330
1F
100
AcDbEntity
  8
Make2D$visible$lines
 60
     1
100
AcDbLine
 10
111.200510110408
 20
78.67267573313791
 30
0.0
 11
105.6628164657846
 21
79.6899396421569
 31
0.0
  0
LINE
  5
BD
330
1F
100
AcDbEntity
  8
Make2D$visible$lines
 60
     1
100
AcDbLine
 10
105.6628164657846
 20
79.6899396421569
 30
0.0
 11
105.6554657675088
 21
80.41984657838609
 31
0.0
  0
LINE
  5
BE
330
1F
100
AcDbEntity
  8
Make2D$visible$lines
 60
     1
100
AcDbLine
 10
108.085643936381
 20
81.37802164915361
 30
0.0
 11
106.1004606981108
 21
80.67439912506954
 31
0.0
  0
LINE
  5
BF
330
1F
100
AcDbEntity
  8
Make2D$visible$lines
 60
     1
100
AcDbLine
 10
108.2631724836928
 20
81.34887767516217
 30
0.0
 11
106.1012942950256
 21
80.57867907412745
 31
0.0
  0
LINE
  5
C0
330
1F
100
AcDbEntity
  8
Make2D$visible$lines
 60
     1
100
AcDbLine
 10
108.085643936381
 20
81.37802164915361
 30
0.0
 11
108.2631724836928
 21
81.34887767516217
 31
0.0
  0
LINE
  5
C1
330
1F
100
AcDbEntity
  8
Make2D$visible$lines
 60
     1
100
AcDbLine
 10
106.1012942950256
 20
80.57867907412745
 30
0.0
 11
106.0809269809662
 21
82.9174117468859
 31
0.0
  0
LINE
  5
C2
330
1F
100
AcDbEntity
  8
Make2D$visible$lines
 60
     1
100
AcDbLine
 10
105.4459942879072
 20
83.01447723984587
 30
0.0
 11
105.4809617160119
 21
79.72334601771674
 31
0.0
  0
LINE
  5
C3
330
1F
100
AcDbEntity
  8
Make2D$visible$lines
 60
     1
100
AcDbLine
 10
105.4809617160119
 20
79.72334601771674
 30
0.0
 11
105.6628164657846
 21
79.6899396421569
 31
0.0
  0
LINE
  5
C4
330
1F
100
AcDbEntity
  8
Make2D$visible$lines
 60
     1
100
AcDbLine
 10
105.6296186352218
 20
82.98640562219761
 30
0.0
 11
105.6554657675088
 21
80.41984657838607
 31
0.0
  0
LINE
  5
C5
330
1F
100
AcDbEntity
  8
Make2D$visible$lines
 60
     1
100
AcDbLine
 10
107.1277041217031
 20
80.232070780624
 30
0.0
 11
108.2646499341058
 21
80.652835967062
 31
0.0
  0
LINE
  5
C6
330
1F
100
AcDbEntity
  8
Make2D$visible$lines
 60
     1
100
AcDbLine
 10
108.2646499341058
 20
80.652835967062
 30
0.0
 11
108.2631724836928
 21
81.34887767516217
 31
0.0
  0
LINE
  5
C7
330
1F
100
AcDbEntity
  8
Make2D$visible$lines
 60
     1
100
AcDbLine
 10
119.8407820991108
 20
81.37419116452213
 30
0.0
 11
131.6259033073355
 21
86.81710008181402
 31
0.0
  0
LINE
  5
C8
330
1F
100
AcDbEntity
  8
Make2D$visible$lines
 60
     1
100
AcDbLine
 10
119.8530867196968
 20
81.74664859995052
 30
0.0
 11
131.6437507214763
 21
87.08070109929116
 31
0.0
  0
SPLINE
  5
C9
330
1F
100
AcDbEntity
  8
Make2D$visible$lines
 60
     1
100
AcDbSpline
210
0.0
220
0.0
230
1.0
 70
    12
 71
     2
 72
     6
 73
     3
 74
     0
 42
0.000000001
 43
0.0000000001
 40
541.4247779607693
 40
541.4247779607693
 40
541.4247779607693
 40
542.0138265833174
 40
542.0138265833174
 40
542.0138265833174
 10
131.6259033073355
 20
86.81710008181402
 30
0.0
 41
101.5263086880692
 10
131.6863711549578
 20
86.8450269042215
 30
0.0
 41
96.16577969535949
 10
131.6894580152382
 20
86.87688596498123
 30
0.0
 41
92.91078564618057
  0
SPLINE
  5
CA
330
1F
100
AcDbEntity
  8
Make2D$visible$lines
 60
     1
100
AcDbSpline
210
0.0
220
0.0
230
1.0
 70
    12
 71
     2
 72
     6
 73
     3
 74
     0
 42
0.000000001
 43
0.0000000001
 40
541.4247779607693
 40
541.4247779607693
 40
541.4247779607693
 40
544.5663706143591
 40
544.5663706143591
 40
544.5663706143591
 10
131.6437507214763
 20
87.08070109929116
 30
0.0
 41
101.4464211297547
 10
132.0690030712574
 20
87.27308367917452
 30
0.0
 41
72.88033169273172
 10
130.6753620799747
 20
87.39899021413525
 30
0.0
 41
104.158216934621
  0
LINE
  5
CB
330
1F
100
AcDbEntity
  8
Make2D$visible$lines
 60
     1
100
AcDbLine
 10
130.6753620799747
 20
87.39899021413525
 30
0.0
 11
108.8185425564112
 21
89.37361382860084
 31
0.0
  0
SPLINE
  5
CC
330
1F
100
AcDbEntity
  8
Make2D$visible$lines
 60
     1
100
AcDbSpline
210
0.0
220
0.0
230
1.0
 70
    12
 71
     2
 72
     6
 73
     3
 74
     0
 42
0.000000001
 43
0.0000000001
 40
582.5663706143591
 40
582.5663706143591
 40
582.5663706143591
 40
585.7079632679489
 40
585.7079632679489
 40
585.7079632679489
 10
108.8185425564112
 20
89.37361382860084
 30
0.0
 41
124.8656220003124
 10
107.867259380639
 20
89.45955616897193
 30
0.0
 41
89.06397787153531
 10
107.2045748622794
 20
89.33110963707554
 30
0.0
 41
124.3335530444662
  0
LINE
  5
CD
330
1F
100
AcDbEntity
  8
Make2D$visible$lines
 60
     1
100
AcDbLine
 10
107.2045748622794
 20
89.33110963707554
 30
0.0
 11
90.24606460161436
 21
86.04408275058091
 31
0.0
  0
SPLINE
  5
CE
330
1F
100
AcDbEntity
  8
Make2D$visible$lines
 60
     1
100
AcDbSpline
210
0.0
220
0.0
230
1.0
 70
    12
 71
     2
 72
     6
 73
     3
 74
     0
 42
0.000000001
 43
0.0000000001
 40
625.4129496959271
 40
625.4129496959271
 40
625.4129496959271
 40
626.8495559215387
 40
626.8495559215387
 40
626.8495559215387
 10
89.72422644228763
 20
85.52332379757588
 30
0.0
 41
78.62185171615002
 10
89.7303642569605
 20
85.41700808016789
 30
0.0
 41
79.06457680974648
 10
90.1371217943464
 20
85.35482492072045
 30
0.0
 41
90.88492957114651
  0
SPLINE
  5
CF
330
1F
100
AcDbEntity
  8
Make2D$visible$lines
 60
     1
100
AcDbSpline
210
0.0
220
0.0
230
1.0
 70
    12
 71
     2
 72
     6
 73
     3
 74
     0
 42
0.000000001
 43
0.0000000001
 40
623.7079632679489
 40
623.7079632679489
 40
623.7079632679489
 40
626.8495559215387
 40
626.8495559215387
 40
626.8495559215387
 10
90.24606460161435
 20
86.04408275058091
 30
0.0
 41
93.51683781769827
 10
89.03844262758079
 20
85.81001231418315
 30
0.0
 41
64.97951079124111
 10
90.12056014613643
 20
85.64803069043147
 30
0.0
 41
90.80504201283199
  0
LINE
  5
D0
330
1F
100
AcDbEntity
  8
Make2D$visible$lines
 60
     1
100
AcDbLine
 10
90.1371217943464
 20
85.35482492072045
 30
0.0
 11
117.0648827239387
 21
81.23823678763145
 31
0.0
  0
LINE
  5
D1
330
1F
100
AcDbEntity
  8
Make2D$visible$lines
 60
     1
100
AcDbLine
 10
90.12056014613643
 20
85.64803069043147
 30
0.0
 11
117.0741171566275
 21
81.61336638126247
 31
0.0
  0
SPLINE
  5
D2
330
1F
100
AcDbEntity
  8
Make2D$visible$lines
 60
     1
100
AcDbSpline
210
0.0
220
0.0
230
1.0
 70
    12
 71
     2
 72
     6
 73
     3
 74
     0
 42
0.000000001
 43
0.0000000001
 40
664.8495559215387
 40
664.8495559215387
 40
664.8495559215387
 40
667.9911485751285
 40
667.9911485751285
 40
667.9911485751285
 10
117.0648827239387
 20
81.23823678763145
 30
0.0
 41
70.1775245054551
 10
118.9292781412997
 20
80.95321687563201
 30
0.0
 41
48.85235364665415
 10
119.8407820991107
 20
81.37419116452213
 30
0.0
 41
70.70959346130124
  0
SPLINE
  5
D3
330
1F
100
AcDbEntity
  8
Make2D$visible$lines
 60
     1
100
AcDbSpline
210
0.0
220
0.0
230
1.0
 70
    12
 71
     2
 72
     6
 73
     3
 74
     0
 42
0.000000001
 43
0.0000000001
 40
664.8495559215387
 40
664.8495559215387
 40
664.8495559215387
 40
667.9911485751285
 40
667.9911485751285
 40
667.9911485751285
 10
117.0741171566275
 20
81.61336638126247
 30
0.0
 41
70.09763694714057
 10
118.9408167530679
 20
81.3339410633066
 30
0.0
 41
48.79586461243751
 10
119.8530867196968
 20
81.74664859995052
 30
0.0
 41
70.6297059029867
  0
SPLINE
  5
D4
330
1F
100
AcDbEntity
  8
Make2D$visible$lines
 60
     1
100
AcDbSpline
210
0.0
220
0.0
230
1.0
 70
    12
 71
     2
 72
    10
 73
     7
 74
     0
 42
0.000000001
 43
0.0000000001
 40
-24.47211225982247
 40
-24.47211225982247
 40
-24.47211225982247
 40
-21.2057504117311
 40
-21.2057504117311
 40
-14.13716694115407
 40
-14.13716694115407
 40
-10.74543585381673
 40
-10.74543585381673
 40
-10.74543585381673
 10
99.89640507644788
 20
75.16247861763918
 30
0.0
 41
83.15427298566301
 10
99.90806986526556
 20
74.74680392380716
 30
0.0
 41
82.72853553855789
 10
99.04874599231096
 20
74.38763746862233
 30
0.0
 41
94.29897272083448
 10
96.64864621409126
 20
73.3844821315441
 30
0.0
 41
64.09896445408152
 10
94.07350238627984
 20
74.06722366622166
 30
0.0
 41
93.10181757018067
 10
93.09386577029309
 20
74.32695230716268
 30
0.0
 41
80.84934681107518
 10
93.07214649356936
 20
74.76807484163174
 30
0.0
 41
81.75993595562262
  0
LINE
  5
D5
330
1F
100
AcDbEntity
  8
Make2D$visible$lines
 60
     1
100
AcDbLine
 10
131.7072841927287
 20
87.13926997345966
 30
0.0
 11
131.6895405125815
 21
86.8778874157264
 31
0.0
  0
LINE
  5
D6
330
1F
100
AcDbEntity
  8
Make2D$visible$lines
 60
     1
100
AcDbLine
 10
99.65122086573376
 20
83.90035466455747
 30
0.0
 11
99.89640507645248
 21
75.16247861750954
 31
0.0
  0
LINE
  5
D7
330
1F
100
AcDbEntity
  8
Make2D$visible$lines
 60
     1
100
AcDbLine
 10
93.07214649362027
 20
74.76807484047336
 30
0.0
 11
92.56913814863799
 21
84.98302981715678
 31
0.0
  0
LINE
  5
D8
330
1F
100
AcDbEntity
  8
Make2D$visible$lines
 60
     1
100
AcDbLine
 10
91.97422633612587
 20
85.52332563704726
 30
0.0
 11
91.95802963897205
 21
85.80405791471247
 31
0.0
  0
LINE
  5
D9
330
1F
100
AcDbEntity
  8
Make2D$visible$lines
 60
     1
100
AcDbLine
 10
91.95742752749558
 20
52.625
 30
0.0
 11
91.95742752749558
 21
53.0
 31
0.0
  0
LINE
  5
DA
330
1F
100
AcDbEntity
  8
Make2D$visible$lines
 60
     1
100
AcDbLine
 10
36.99264068711928
 20
52.625
 30
0.0
 11
36.99264068711928
 21
38.0
 31
0.0
  0
LINE
  5
DB
330
1F
100
AcDbEntity
  8
Make2D$visible$lines
 60
     1
100
AcDbLine
 10
37.31059171754362
 20
38.0
 30
0.0
 11
36.99264068711928
 21
38.0
 31
0.0
  0
LINE
  5
DC
330
1F
100
AcDbEntity
  8
Make2D$visible$lines
 60
     1
100
AcDbLine
 10
45.99264068711928
 20
51.375
 30
0.0
 11
45.99264068711928
 21
39.25
 31
0.0
  0
LINE
  5
DD
330
1F
100
AcDbEntity
  8
Make2D$visible$lines
 60
     1
100
AcDbLine
 10
35.25000000000001
 20
53.0
 30
0.0
 11
37.25000000000001
 21
53.0
 31
0.0
  0
LINE
  5
DE
330
1F
100
AcDbEntity
  8
Make2D$visible$lines
 60
     1
100
AcDbLine
 10
35.25000000000001
 20
52.625
 30
0.0
 11
37.25000000000001
 21
52.625
 31
0.0
  0
LINE
  5
DF
330
1F
100
AcDbEntity
  8
Make2D$visible$lines
 60
     1
100
AcDbLine
 10
35.25000000000001
 20
52.625
 30
0.0
 11
35.25000000000001
 21
53.0
 31
0.0
  0
LINE
  5
E0
330
1F
100
AcDbEntity
  8
Make2D$visible$lines
 60
     1
100
AcDbLine
 10
75.25
 20
53.0
 30
0.0
 11
77.25
 21
53.0
 31
0.0
  0
LINE
  5
E1
330
1F
100
AcDbEntity
  8
Make2D$visible$lines
 60
     1
100
AcDbLine
 10
77.25
 20
52.625
 30
0.0
 11
77.25
 21
53.0
 31
0.0
  0
LINE
  5
E2
330
1F
100
AcDbEntity
  8
Make2D$visible$lines
 60
     1
100
AcDbLine
 10
75.25
 20
52.625
 30
0.0
 11
77.25
 21
52.625
 31
0.0
  0
LINE
  5
E3
330
1F
100
AcDbEntity
  8
Make2D$visible$lines
 60
     1
100
AcDbLine
 10
37.25000000000001
 20
53.0
 30
0.0
 11
75.25
 21
53.0
 31
0.0
  0
LINE
  5
E4
330
1F
100
AcDbEntity
  8
Make2D$visible$lines
 60
     1
100
AcDbLine
 10
37.25000000000001
 20
52.625
 30
0.0
 11
75.25
 21
52.625
 31
0.0
  0
LINE
  5
E5
330
1F
100
AcDbEntity
  8
Make2D$visible$lines
 60
     1
100
AcDbLine
 10
68.56059171754265
 20
39.25
 30
0.0
 11
68.56059171754265
 21
51.375
 31
0.0
  0
LINE
  5
E6
330
1F
100
AcDbEntity
  8
Make2D$visible$lines
 60
     1
100
AcDbLine
 10
67.68559171754265
 20
51.375
 30
0.0
 11
67.68559171754265
 21
39.25
 31
0.0
  0
LINE
  5
E7
330
1F
100
AcDbEntity
  8
Make2D$visible$lines
 60
     1
100
AcDbLine
 10
67.31059171754265
 20
51.375
 30
0.0
 11
67.31059171754265
 21
39.25
 31
0.0
  0
LINE
  5
E8
330
1F
100
AcDbEntity
  8
Make2D$visible$lines
 60
     1
100
AcDbLine
 10
38.56059171754265
 20
39.25
 30
0.0
 11
38.56059171754265
 21
51.37500000000001
 31
0.0
  0
LINE
  5
E9
330
1F
100
AcDbEntity
  8
Make2D$visible$lines
 60
     1
100
AcDbLine
 10
75.31059171754265
 20
38.0
 30
0.0
 11
37.68559171754265
 21
38.0
 31
0.0
  0
LINE
  5
EA
330
1F
100
AcDbEntity
  8
Make2D$visible$lines
 60
     1
100
AcDbLine
 10
75.31059171754265
 20
52.625
 30
0.0
 11
75.31059171754265
 21
38.0
 31
0.0
  0
LINE
  5
EB
330
1F
100
AcDbEntity
  8
Make2D$visible$lines
 60
     1
100
AcDbLine
 10
74.06059171754265
 20
51.375
 30
0.0
 11
37.68559171754266
 21
51.375
 31
0.0
  0
LINE
  5
EC
330
1F
100
AcDbEntity
  8
Make2D$visible$lines
 60
     1
100
AcDbLine
 10
74.06059171754264
 20
39.25
 30
0.0
 11
74.06059171754265
 21
51.375
 31
0.0
  0
LINE
  5
ED
330
1F
100
AcDbEntity
  8
Make2D$visible$lines
 60
     1
100
AcDbLine
 10
37.68559171754265
 20
39.25
 30
0.0
 11
74.06059171754264
 21
39.25
 31
0.0
  0
LINE
  5
EE
330
1F
100
AcDbEntity
  8
Make2D$visible$lines
 60
     1
100
AcDbLine
 10
37.68559171754265
 20
52.62499999999999
 30
0.0
 11
37.68559171754265
 21
38.0
 31
0.0
  0
LINE
  5
EF
330
1F
100
AcDbEntity
  8
Make2D$visible$lines
 60
     1
100
AcDbLine
 10
37.31059171754265
 20
38.0
 30
0.0
 11
37.68559171754265
 21
38.0
 31
0.0
  0
LINE
  5
F0
330
1F
100
AcDbEntity
  8
Make2D$visible$lines
 60
     1
100
AcDbLine
 10
37.31059171754265
 20
52.62499999999999
 30
0.0
 11
37.31059171754265
 21
38.0
 31
0.0
  0
LINE
  5
F1
330
1F
100
AcDbEntity
  8
Make2D$visible$lines
 60
     1
100
AcDbLine
 10
37.25000000000001
 20
67.95742752749558
 30
0.0
 11
75.25
 21
67.95742752749558
 31
0.0
  0
ARC
  5
F2
330
1F
100
AcDbEntity
  8
Make2D$visible$lines
 60
     1
100
AcDbCircle
 10
75.25000000000001
 20
69.95742752749557
 30
0.0
 40
1.999999999999986
100
AcDbArc
 50
269.9999999999996
 51
0.0000000000004071
  0
LINE
  5
F3
330
1F
100
AcDbEntity
  8
Make2D$visible$lines
 60
     1
100
AcDbLine
 10
77.25
 20
69.95742752749558
 30
0.0
 11
77.25
 21
107.9574275274956
 31
0.0
  0
ARC
  5
F4
330
1F
100
AcDbEntity
  8
Make2D$visible$lines
 60
     1
100
AcDbCircle
 10
75.24999999999997
 20
107.9574275274955
 30
0.0
 40
2.000000000000028
100
AcDbArc
 50
0.0000000000012213
 51
89.99999999999919
  0
LINE
  5
F5
330
1F
100
AcDbEntity
  8
Make2D$visible$lines
 60
     1
100
AcDbLine
 10
75.25
 20
109.9574275274956
 30
0.0
 11
37.25000000000001
 21
109.9574275274956
 31
0.0
  0
ARC
  5
F6
330
1F
100
AcDbEntity
  8
Make2D$visible$lines
 60
     1
100
AcDbCircle
 10
37.25000000000004
 20
107.9574275274956
 30
0.0
 40
2.000000000000028
100
AcDbArc
 50
90.00000000000082
 51
179.9999999999992
  0
LINE
  5
F7
330
1F
100
AcDbEntity
  8
Make2D$visible$lines
 60
     1
100
AcDbLine
 10
35.25000000000001
 20
107.9574275274956
 30
0.0
 11
35.25000000000001
 21
69.95742752749558
 31
0.0
  0
ARC
  5
F8
330
1F
100
AcDbEntity
  8
Make2D$visible$lines
 60
     1
100
AcDbCircle
 10
37.25000000000002
 20
69.95742752749558
 30
0.0
 40
2.000000000000014
100
AcDbArc
 50
180.0
 51
269.9999999999996
  0
LINE
  5
FA
330
1F
100
AcDbEntity
  8
AL Base
100
AcDbLine
 10
-18.93940828245736
 20
-11.38937644695099
 30
1.25
 11
-18.93940828245736
 21
-17.76437644695099
 31
1.25
  0
LINE
  5
FB
330
1F
100
AcDbEntity
  8
AL Base
100
AcDbLine
 10
-18.93940828245736
 20
-17.76437644695099
 30
1.25
 11
-18.56440828245736
 21
-17.76437644695099
 31
1.25
  0
LINE
  5
FC
330
1F
100
AcDbEntity
  8
AL Base
100
AcDbLine
 10
-18.56440828245736
 20
-11.38937644695099
 30
1.25
 11
-18.56440828245736
 21
-17.76437644695099
 31
1.25
  0
LINE
  5
FD
330
1F
100
AcDbEntity
  8
AL Base
100
AcDbLine
 10
-18.93940828245736
 20
-11.38937644695099
 30
1.25
 11
-18.56440828245736
 21
-11.38937644695099
 31
1.25
  0
LINE
  5
FE
330
1F
100
AcDbEntity
  8
AL Base
100
AcDbLine
 10
-18.93940828245736
 20
-17.76437644695099
 30
1.25
 11
-18.93940828245736
 21
-17.764376446951
 31
13.37499999999999
  0
LINE
  5
FF
330
1F
100
AcDbEntity
  8
AL Base
100
AcDbLine
 10
-18.93940828245736
 20
-17.764376446951
 30
13.37499999999999
 11
-18.56440828245736
 21
-17.764376446951
 31
13.37499999999999
  0
LINE
  5
100
330
1F
100
AcDbEntity
  8
AL Base
100
AcDbLine
 10
-18.56440828245736
 20
-17.76437644695099
 30
1.25
 11
-18.56440828245736
 21
-17.764376446951
 31
13.37499999999999
  0
LINE
  5
101
330
1F
100
AcDbEntity
  8
AL Base
100
AcDbLine
 10
-18.93940828245736
 20
-17.764376446951
 30
13.37499999999999
 11
-18.93940828245736
 21
-11.38937644695099
 31
13.37499999999999
  0
LINE
  5
102
330
1F
100
AcDbEntity
  8
AL Base
100
AcDbLine
 10
-18.93940828245736
 20
-11.38937644695099
 30
13.37499999999999
 11
-18.56440828245736
 21
-11.38937644695099
 31
13.37499999999999
  0
LINE
  5
103
330
1F
100
AcDbEntity
  8
AL Base
100
AcDbLine
 10
-18.56440828245736
 20
-17.764376446951
 30
13.37499999999999
 11
-18.56440828245736
 21
-11.38937644695099
 31
13.37499999999999
  0
LINE
  5
104
330
1F
100
AcDbEntity
  8
AL Base
100
AcDbLine
 10
-18.93940828245736
 20
-11.38937644695099
 30
13.37499999999999
 11
-18.93940828245736
 21
-11.38937644695099
 31
14.62499999999999
  0
LINE
  5
105
330
1F
100
AcDbEntity
  8
AL Base
100
AcDbLine
 10
-18.93940828245736
 20
-11.38937644695099
 30
14.62499999999999
 11
-18.56440828245736
 21
-11.38937644695099
 31
14.62499999999999
  0
LINE
  5
106
330
1F
100
AcDbEntity
  8
AL Base
100
AcDbLine
 10
-18.56440828245736
 20
-11.38937644695099
 30
13.37499999999999
 11
-18.56440828245736
 21
-11.38937644695099
 31
14.62499999999999
  0
LINE
  5
107
330
1F
100
AcDbEntity
  8
AL Base
100
AcDbLine
 10
-18.93940828245736
 20
-11.38937644695099
 30
14.62499999999999
 11
-18.93940828245736
 21
-19.01437644695099
 31
14.62499999999999
  0
LINE
  5
108
330
1F
100
AcDbEntity
  8
AL Base
100
AcDbLine
 10
-18.93940828245736
 20
-19.01437644695099
 30
14.62499999999999
 11
-18.56440828245736
 21
-19.01437644695099
 31
14.62499999999999
  0
LINE
  5
109
330
1F
100
AcDbEntity
  8
AL Base
100
AcDbLine
 10
-18.56440828245736
 20
-11.38937644695099
 30
14.62499999999999
 11
-18.56440828245736
 21
-19.01437644695099
 31
14.62499999999999
  0
LINE
  5
10A
330
1F
100
AcDbEntity
  8
AL Base
100
AcDbLine
 10
-18.93940828245736
 20
-19.01437644695099
 30
14.62499999999999
 11
-18.93940828245736
 21
-19.01437644695099
 31
0.0000000000000004
  0
LINE
  5
10B
330
1F
100
AcDbEntity
  8
AL Base
100
AcDbLine
 10
-18.93940828245736
 20
-19.01437644695099
 30
0.0000000000000004
 11
-18.56440828245736
 21
-19.01437644695099
 31
0.0000000000000004
  0
LINE
  5
10C
330
1F
100
AcDbEntity
  8
AL Base
100
AcDbLine
 10
-18.56440828245736
 20
-19.01437644695099
 30
14.62499999999999
 11
-18.56440828245736
 21
-19.01437644695099
 31
0.0000000000000004
  0
LINE
  5
10D
330
1F
100
AcDbEntity
  8
AL Base
100
AcDbLine
 10
-18.93940828245736
 20
-19.01437644695099
 30
0.0000000000000004
 11
-18.93940828245736
 21
-11.38937644695099
 31
0.0000000000000004
  0
LINE
  5
10E
330
1F
100
AcDbEntity
  8
AL Base
100
AcDbLine
 10
-18.93940828245736
 20
-11.38937644695099
 30
0.0000000000000004
 11
-18.56440828245736
 21
-11.38937644695099
 31
0.0000000000000004
  0
LINE
  5
10F
330
1F
100
AcDbEntity
  8
AL Base
100
AcDbLine
 10
-18.56440828245736
 20
-19.01437644695099
 30
0.0000000000000004
 11
-18.56440828245736
 21
-11.38937644695099
 31
0.0000000000000004
  0
LINE
  5
110
330
1F
100
AcDbEntity
  8
AL Base
100
AcDbLine
 10
-18.93940828245736
 20
-11.38937644695099
 30
0.0000000000000004
 11
-18.93940828245736
 21
-11.38937644695099
 31
1.25
  0
LINE
  5
111
330
1F
100
AcDbEntity
  8
AL Base
100
AcDbLine
 10
-18.56440828245736
 20
-11.38937644695099
 30
0.0000000000000004
 11
-18.56440828245736
 21
-11.38937644695099
 31
1.25
  0
LINE
  5
112
330
1F
100
AcDbEntity
  8
AL Base
100
AcDbLine
 10
-18.56440828245736
 20
-19.01437644695099
 30
1.25
 11
17.81059171754263
 21
-19.01437644695099
 31
1.25
  0
LINE
  5
113
330
1F
100
AcDbEntity
  8
AL Base
100
AcDbLine
 10
17.81059171754263
 20
-19.01437644695099
 30
1.25
 11
17.81059171754263
 21
-18.63937644695099
 31
1.25
  0
LINE
  5
114
330
1F
100
AcDbEntity
  8
AL Base
100
AcDbLine
 10
-18.56440828245736
 20
-18.63937644695099
 30
1.25
 11
17.81059171754263
 21
-18.63937644695099
 31
1.25
  0
LINE
  5
115
330
1F
100
AcDbEntity
  8
AL Base
100
AcDbLine
 10
-18.56440828245736
 20
-19.01437644695099
 30
1.25
 11
-18.56440828245736
 21
-18.63937644695099
 31
1.25
  0
LINE
  5
116
330
1F
100
AcDbEntity
  8
AL Base
100
AcDbLine
 10
17.81059171754263
 20
-19.01437644695099
 30
1.25
 11
17.81059171754264
 21
-19.01437644695099
 31
13.375
  0
LINE
  5
117
330
1F
100
AcDbEntity
  8
AL Base
100
AcDbLine
 10
17.81059171754264
 20
-19.01437644695099
 30
13.375
 11
17.81059171754264
 21
-18.63937644695099
 31
13.375
  0
LINE
  5
118
330
1F
100
AcDbEntity
  8
AL Base
100
AcDbLine
 10
17.81059171754263
 20
-18.63937644695099
 30
1.25
 11
17.81059171754264
 21
-18.63937644695099
 31
13.375
  0
LINE
  5
119
330
1F
100
AcDbEntity
  8
AL Base
100
AcDbLine
 10
17.81059171754264
 20
-19.01437644695099
 30
13.375
 11
-18.56440828245735
 21
-19.01437644695099
 31
13.375
  0
LINE
  5
11A
330
1F
100
AcDbEntity
  8
AL Base
100
AcDbLine
 10
-18.56440828245735
 20
-19.01437644695099
 30
13.375
 11
-18.56440828245735
 21
-18.63937644695099
 31
13.375
  0
LINE
  5
11B
330
1F
100
AcDbEntity
  8
AL Base
100
AcDbLine
 10
17.81059171754264
 20
-18.63937644695099
 30
13.375
 11
-18.56440828245735
 21
-18.63937644695099
 31
13.375
  0
LINE
  5
11C
330
1F
100
AcDbEntity
  8
AL Base
100
AcDbLine
 10
-18.56440828245735
 20
-19.01437644695099
 30
13.375
 11
-18.56440828245734
 21
-19.01437644695099
 31
14.625
  0
LINE
  5
11D
330
1F
100
AcDbEntity
  8
AL Base
100
AcDbLine
 10
-18.56440828245734
 20
-19.01437644695099
 30
14.625
 11
-18.56440828245734
 21
-18.63937644695099
 31
14.625
  0
LINE
  5
11E
330
1F
100
AcDbEntity
  8
AL Base
100
AcDbLine
 10
-18.56440828245735
 20
-18.63937644695099
 30
13.375
 11
-18.56440828245734
 21
-18.63937644695099
 31
14.625
  0
LINE
  5
11F
330
1F
100
AcDbEntity
  8
AL Base
100
AcDbLine
 10
-18.56440828245734
 20
-19.01437644695099
 30
14.625
 11
19.06059171754264
 21
-19.01437644695099
 31
14.625
  0
LINE
  5
120
330
1F
100
AcDbEntity
  8
AL Base
100
AcDbLine
 10
19.06059171754264
 20
-19.01437644695099
 30
14.625
 11
19.06059171754264
 21
-18.63937644695099
 31
14.625
  0
LINE
  5
121
330
1F
100
AcDbEntity
  8
AL Base
100
AcDbLine
 10
-18.56440828245734
 20
-18.63937644695099
 30
14.625
 11
19.06059171754264
 21
-18.63937644695099
 31
14.625
  0
LINE
  5
122
330
1F
100
AcDbEntity
  8
AL Base
100
AcDbLine
 10
19.06059171754264
 20
-19.01437644695099
 30
14.625
 11
19.06059171754264
 21
-19.01437644695099
 31
0.0
  0
LINE
  5
123
330
1F
100
AcDbEntity
  8
AL Base
100
AcDbLine
 10
19.06059171754264
 20
-19.01437644695099
 30
0.0
 11
19.06059171754264
 21
-18.63937644695099
 31
0.0
  0
LINE
  5
124
330
1F
100
AcDbEntity
  8
AL Base
100
AcDbLine
 10
19.06059171754264
 20
-18.63937644695099
 30
14.625
 11
19.06059171754264
 21
-18.63937644695099
 31
0.0
  0
LINE
  5
125
330
1F
100
AcDbEntity
  8
AL Base
100
AcDbLine
 10
19.06059171754264
 20
-19.01437644695099
 30
0.0
 11
-18.56440828245736
 21
-19.01437644695099
 31
0.0
  0
LINE
  5
126
330
1F
100
AcDbEntity
  8
AL Base
100
AcDbLine
 10
-18.56440828245736
 20
-19.01437644695099
 30
0.0
 11
-18.56440828245736
 21
-18.63937644695099
 31
0.0
  0
LINE
  5
127
330
1F
100
AcDbEntity
  8
AL Base
100
AcDbLine
 10
19.06059171754264
 20
-18.63937644695099
 30
0.0
 11
-18.56440828245736
 21
-18.63937644695099
 31
0.0
  0
LINE
  5
128
330
1F
100
AcDbEntity
  8
AL Base
100
AcDbLine
 10
-18.56440828245736
 20
-19.01437644695099
 30
0.0
 11
-18.56440828245736
 21
-19.01437644695099
 31
1.25
  0
LINE
  5
129
330
1F
100
AcDbEntity
  8
AL Base
100
AcDbLine
 10
-18.56440828245736
 20
-18.63937644695099
 30
0.0
 11
-18.56440828245736
 21
-18.63937644695099
 31
1.25
  0
LINE
  5
12A
330
1F
100
AcDbEntity
  8
AL Base
100
AcDbLine
 10
-18.56440828245736
 20
-19.01437644695099
 30
1.25
 11
-18.56440828245736
 21
-19.01437644695099
 31
0.0
  0
LINE
  5
12B
330
1F
100
AcDbEntity
  8
AL Base
100
AcDbLine
 10
-18.56440828245736
 20
-19.01437644695099
 30
0.0
 11
19.06059171754264
 21
-19.01437644695099
 31
0.0
  0
LINE
  5
12C
330
1F
100
AcDbEntity
  8
AL Base
100
AcDbLine
 10
19.06059171754264
 20
-19.01437644695099
 30
0.0
 11
19.06059171754264
 21
-19.01437644695099
 31
14.625
  0
LINE
  5
12D
330
1F
100
AcDbEntity
  8
AL Base
100
AcDbLine
 10
19.06059171754264
 20
-19.01437644695099
 30
14.625
 11
-18.56440828245734
 21
-19.01437644695099
 31
14.625
  0
LINE
  5
12E
330
1F
100
AcDbEntity
  8
AL Base
100
AcDbLine
 10
-18.56440828245736
 20
-19.01437644695099
 30
14.625
 11
-18.56440828245735
 21
-19.01437644695099
 31
13.375
  0
POLYLINE
  5
12F
330
1F
100
AcDbEntity
  8
AL Base
100
AcDb2dPolyline
 66
     1
 10
0.0
 20
0.0
 30
-19.01437644695099
210
0.0
220
1.0
230
0.0
  0
VERTEX
  5
130
330
12F
100
AcDbEntity
  8
AL Base
100
AcDbVertex
100
AcDb2dVertex
 10
18.56440828245735
 20
13.375
 30
-19.01437644695099
  0
VERTEX
  5
131
330
12F
100
AcDbEntity
  8
AL Base
100
AcDbVertex
100
AcDb2dVertex
 10
-17.81059171754264
 20
13.375
 30
-19.01437644695099
  0
VERTEX
  5
132
330
12F
100
AcDbEntity
  8
AL Base
100
AcDbVertex
100
AcDb2dVertex
 10
-17.81059171754263
 20
1.25
 30
-19.01437644695099
  0
VERTEX
  5
133
330
12F
100
AcDbEntity
  8
AL Base
100
AcDbVertex
100
AcDb2dVertex
 10
18.56440828245736
 20
1.25
 30
-19.01437644695099
  0
SEQEND
  5
134
330
12F
100
AcDbEntity
  8
AL Base
  0
LINE
  5
135
330
1F
100
AcDbEntity
  8
AL Base
100
AcDbLine
 10
11.06059171754264
 20
-11.01437644695099
 30
14.625
 11
-18.93940828245736
 21
-11.01437644695099
 31
14.625
  0
LINE
  5
136
330
1F
100
AcDbEntity
  8
AL Base
100
AcDbLine
 10
-18.93940828245736
 20
-11.01437644695099
 30
14.625
 11
-18.93940828245736
 21
-11.38937644695099
 31
14.625
  0
LINE
  5
137
330
1F
100
AcDbEntity
  8
AL Base
100
AcDbLine
 10
11.06059171754264
 20
-11.38937644695099
 30
14.625
 11
-18.93940828245736
 21
-11.38937644695099
 31
14.625
  0
LINE
  5
138
330
1F
100
AcDbEntity
  8
AL Base
100
AcDbLine
 10
11.06059171754264
 20
-11.01437644695099
 30
14.625
 11
11.06059171754264
 21
-11.38937644695099
 31
14.625
  0
LINE
  5
139
330
1F
100
AcDbEntity
  8
AL Base
100
AcDbLine
 10
-18.93940828245736
 20
-11.01437644695099
 30
14.625
 11
-18.93940828245736
 21
-11.01437644695099
 31
0.0
  0
LINE
  5
13A
330
1F
100
AcDbEntity
  8
AL Base
100
AcDbLine
 10
-18.93940828245736
 20
-11.01437644695099
 30
0.0
 11
-18.93940828245736
 21
-11.38937644695099
 31
0.0
  0
LINE
  5
13B
330
1F
100
AcDbEntity
  8
AL Base
100
AcDbLine
 10
-18.93940828245736
 20
-11.38937644695099
 30
14.625
 11
-18.93940828245736
 21
-11.38937644695099
 31
0.0
  0
LINE
  5
13C
330
1F
100
AcDbEntity
  8
AL Base
100
AcDbLine
 10
-18.93940828245736
 20
-11.01437644695099
 30
0.0
 11
11.06059171754264
 21
-11.01437644695099
 31
0.0
  0
LINE
  5
13D
330
1F
100
AcDbEntity
  8
AL Base
100
AcDbLine
 10
11.06059171754264
 20
-11.01437644695099
 30
0.0
 11
11.06059171754264
 21
-11.38937644695099
 31
0.0
  0
LINE
  5
13E
330
1F
100
AcDbEntity
  8
AL Base
100
AcDbLine
 10
-18.93940828245736
 20
-11.38937644695099
 30
0.0
 11
11.06059171754264
 21
-11.38937644695099
 31
0.0
  0
LINE
  5
13F
330
1F
100
AcDbEntity
  8
AL Base
100
AcDbLine
 10
11.06059171754264
 20
-11.01437644695099
 30
0.0
 11
11.06059171754264
 21
-11.01437644695099
 31
1.25
  0
LINE
  5
140
330
1F
100
AcDbEntity
  8
AL Base
100
AcDbLine
 10
11.06059171754264
 20
-11.01437644695099
 30
1.25
 11
11.06059171754264
 21
-11.38937644695099
 31
1.25
  0
LINE
  5
141
330
1F
100
AcDbEntity
  8
AL Base
100
AcDbLine
 10
11.06059171754264
 20
-11.38937644695099
 30
0.0
 11
11.06059171754264
 21
-11.38937644695099
 31
1.25
  0
LINE
  5
142
330
1F
100
AcDbEntity
  8
AL Base
100
AcDbLine
 10
11.06059171754264
 20
-11.01437644695099
 30
1.25
 11
-17.68940828245736
 21
-11.01437644695099
 31
1.25
  0
LINE
  5
143
330
1F
100
AcDbEntity
  8
AL Base
100
AcDbLine
 10
-17.68940828245736
 20
-11.01437644695099
 30
1.25
 11
-17.68940828245736
 21
-11.38937644695099
 31
1.25
  0
LINE
  5
144
330
1F
100
AcDbEntity
  8
AL Base
100
AcDbLine
 10
11.06059171754264
 20
-11.38937644695099
 30
1.25
 11
-17.68940828245736
 21
-11.38937644695099
 31
1.25
  0
LINE
  5
145
330
1F
100
AcDbEntity
  8
AL Base
100
AcDbLine
 10
-17.68940828245736
 20
-11.01437644695099
 30
1.25
 11
-17.68940828245736
 21
-11.01437644695099
 31
13.37500000000001
  0
LINE
  5
146
330
1F
100
AcDbEntity
  8
AL Base
100
AcDbLine
 10
-17.68940828245736
 20
-11.01437644695099
 30
13.37500000000001
 11
-17.68940828245736
 21
-11.38937644695099
 31
13.37500000000001
  0
LINE
  5
147
330
1F
100
AcDbEntity
  8
AL Base
100
AcDbLine
 10
-17.68940828245736
 20
-11.38937644695099
 30
1.25
 11
-17.68940828245736
 21
-11.38937644695099
 31
13.37500000000001
  0
LINE
  5
148
330
1F
100
AcDbEntity
  8
AL Base
100
AcDbLine
 10
-17.68940828245736
 20
-11.01437644695099
 30
13.37500000000001
 11
11.06059171754264
 21
-11.01437644695099
 31
13.375
  0
LINE
  5
149
330
1F
100
AcDbEntity
  8
AL Base
100
AcDbLine
 10
11.06059171754264
 20
-11.01437644695099
 30
13.375
 11
11.06059171754264
 21
-11.38937644695099
 31
13.375
  0
LINE
  5
14A
330
1F
100
AcDbEntity
  8
AL Base
100
AcDbLine
 10
-17.68940828245736
 20
-11.38937644695099
 30
13.37500000000001
 11
11.06059171754264
 21
-11.38937644695099
 31
13.375
  0
LINE
  5
14B
330
1F
100
AcDbEntity
  8
AL Base
100
AcDbLine
 10
11.06059171754264
 20
-11.01437644695099
 30
13.375
 11
11.06059171754264
 21
-11.01437644695099
 31
14.625
  0
LINE
  5
14C
330
1F
100
AcDbEntity
  8
AL Base
100
AcDbLine
 10
11.06059171754264
 20
-11.38937644695099
 30
13.375
 11
11.06059171754264
 21
-11.38937644695099
 31
14.625
  0
LINE
  5
14D
330
1F
100
AcDbEntity
  8
AL Base
100
AcDbLine
 10
19.06059171754264
 20
-18.639376446951
 30
1.25
 11
19.06059171754264
 21
17.735623553049
 31
1.25
  0
LINE
  5
14E
330
1F
100
AcDbEntity
  8
AL Base
100
AcDbLine
 10
19.06059171754264
 20
17.735623553049
 30
1.25
 11
18.68559171754264
 21
17.735623553049
 31
1.25
  0
LINE
  5
14F
330
1F
100
AcDbEntity
  8
AL Base
100
AcDbLine
 10
18.68559171754264
 20
-18.639376446951
 30
1.25
 11
18.68559171754264
 21
17.735623553049
 31
1.25
  0
LINE
  5
150
330
1F
100
AcDbEntity
  8
AL Base
100
AcDbLine
 10
19.06059171754264
 20
-18.639376446951
 30
1.25
 11
18.68559171754264
 21
-18.639376446951
 31
1.25
  0
LINE
  5
151
330
1F
100
AcDbEntity
  8
AL Base
100
AcDbLine
 10
19.06059171754264
 20
17.735623553049
 30
1.25
 11
19.06059171754264
 21
17.735623553049
 31
13.375
  0
LINE
  5
152
330
1F
100
AcDbEntity
  8
AL Base
100
AcDbLine
 10
19.06059171754264
 20
17.735623553049
 30
13.375
 11
18.68559171754264
 21
17.735623553049
 31
13.375
  0
LINE
  5
153
330
1F
100
AcDbEntity
  8
AL Base
100
AcDbLine
 10
18.68559171754264
 20
17.735623553049
 30
1.25
 11
18.68559171754264
 21
17.735623553049
 31
13.375
  0
LINE
  5
154
330
1F
100
AcDbEntity
  8
AL Base
100
AcDbLine
 10
19.06059171754264
 20
17.735623553049
 30
13.375
 11
19.06059171754264
 21
-18.639376446951
 31
13.375
  0
LINE
  5
155
330
1F
100
AcDbEntity
  8
AL Base
100
AcDbLine
 10
19.06059171754264
 20
-18.639376446951
 30
13.375
 11
18.68559171754264
 21
-18.639376446951
 31
13.375
  0
LINE
  5
156
330
1F
100
AcDbEntity
  8
AL Base
100
AcDbLine
 10
18.68559171754264
 20
17.735623553049
 30
13.375
 11
18.68559171754264
 21
-18.639376446951
 31
13.375
  0
LINE
  5
157
330
1F
100
AcDbEntity
  8
AL Base
100
AcDbLine
 10
19.06059171754264
 20
-18.639376446951
 30
13.375
 11
19.06059171754264
 21
-18.639376446951
 31
14.625
  0
LINE
  5
158
330
1F
100
AcDbEntity
  8
AL Base
100
AcDbLine
 10
19.06059171754264
 20
-18.639376446951
 30
14.625
 11
18.68559171754264
 21
-18.639376446951
 31
14.625
  0
LINE
  5
159
330
1F
100
AcDbEntity
  8
AL Base
100
AcDbLine
 10
18.68559171754264
 20
-18.639376446951
 30
13.375
 11
18.68559171754264
 21
-18.639376446951
 31
14.625
  0
LINE
  5
15A
330
1F
100
AcDbEntity
  8
AL Base
100
AcDbLine
 10
19.06059171754264
 20
-18.639376446951
 30
14.625
 11
19.06059171754264
 21
18.985623553049
 31
14.625
  0
LINE
  5
15B
330
1F
100
AcDbEntity
  8
AL Base
100
AcDbLine
 10
19.06059171754264
 20
18.985623553049
 30
14.625
 11
18.68559171754264
 21
18.985623553049
 31
14.625
  0
LINE
  5
15C
330
1F
100
AcDbEntity
  8
AL Base
100
AcDbLine
 10
18.68559171754264
 20
-18.639376446951
 30
14.625
 11
18.68559171754264
 21
18.985623553049
 31
14.625
  0
LINE
  5
15D
330
1F
100
AcDbEntity
  8
AL Base
100
AcDbLine
 10
19.06059171754264
 20
18.985623553049
 30
14.625
 11
19.06059171754264
 21
18.985623553049
 31
0.0000000000000004
  0
LINE
  5
15E
330
1F
100
AcDbEntity
  8
AL Base
100
AcDbLine
 10
19.06059171754264
 20
18.985623553049
 30
0.0000000000000004
 11
18.68559171754264
 21
18.985623553049
 31
0.0000000000000004
  0
LINE
  5
15F
330
1F
100
AcDbEntity
  8
AL Base
100
AcDbLine
 10
18.68559171754264
 20
18.985623553049
 30
14.625
 11
18.68559171754264
 21
18.985623553049
 31
0.0000000000000004
  0
LINE
  5
160
330
1F
100
AcDbEntity
  8
AL Base
100
AcDbLine
 10
19.06059171754264
 20
18.985623553049
 30
0.0000000000000004
 11
19.06059171754264
 21
-18.639376446951
 31
0.0000000000000004
  0
LINE
  5
161
330
1F
100
AcDbEntity
  8
AL Base
100
AcDbLine
 10
19.06059171754264
 20
-18.639376446951
 30
0.0000000000000004
 11
18.68559171754264
 21
-18.639376446951
 31
0.0000000000000004
  0
LINE
  5
162
330
1F
100
AcDbEntity
  8
AL Base
100
AcDbLine
 10
18.68559171754264
 20
18.985623553049
 30
0.0000000000000004
 11
18.68559171754264
 21
-18.639376446951
 31
0.0000000000000004
  0
LINE
  5
163
330
1F
100
AcDbEntity
  8
AL Base
100
AcDbLine
 10
19.06059171754264
 20
-18.639376446951
 30
0.0000000000000004
 11
19.06059171754264
 21
-18.639376446951
 31
1.25
  0
LINE
  5
164
330
1F
100
AcDbEntity
  8
AL Base
100
AcDbLine
 10
18.68559171754264
 20
-18.639376446951
 30
0.0000000000000004
 11
18.68559171754264
 21
-18.639376446951
 31
1.25
  0
LINE
  5
165
330
1F
100
AcDbEntity
  8
AL Base
100
AcDbLine
 10
11.06059171754264
 20
18.610623553049
 30
1.25
 11
11.06059171754264
 21
-10.13937644695099
 31
1.25
  0
LINE
  5
166
330
1F
100
AcDbEntity
  8
AL Base
100
AcDbLine
 10
11.06059171754264
 20
-10.13937644695099
 30
1.25
 11
11.43559171754264
 21
-10.13937644695099
 31
1.25
  0
LINE
  5
167
330
1F
100
AcDbEntity
  8
AL Base
100
AcDbLine
 10
11.43559171754264
 20
18.610623553049
 30
1.25
 11
11.43559171754264
 21
-10.13937644695099
 31
1.25
  0
LINE
  5
168
330
1F
100
AcDbEntity
  8
AL Base
100
AcDbLine
 10
11.06059171754264
 20
18.610623553049
 30
1.25
 11
11.43559171754264
 21
18.610623553049
 31
1.25
  0
LINE
  5
169
330
1F
100
AcDbEntity
  8
AL Base
100
AcDbLine
 10
11.06059171754264
 20
-10.13937644695099
 30
1.25
 11
11.06059171754264
 21
-10.13937644695099
 31
13.375
  0
LINE
  5
16A
330
1F
100
AcDbEntity
  8
AL Base
100
AcDbLine
 10
11.06059171754264
 20
-10.13937644695099
 30
13.375
 11
11.43559171754264
 21
-10.13937644695099
 31
13.375
  0
LINE
  5
16B
330
1F
100
AcDbEntity
  8
AL Base
100
AcDbLine
 10
11.43559171754264
 20
-10.13937644695099
 30
1.25
 11
11.43559171754264
 21
-10.13937644695099
 31
13.375
  0
LINE
  5
16C
330
1F
100
AcDbEntity
  8
AL Base
100
AcDbLine
 10
11.06059171754264
 20
-10.13937644695099
 30
13.375
 11
11.06059171754264
 21
18.610623553049
 31
13.375
  0
LINE
  5
16D
330
1F
100
AcDbEntity
  8
AL Base
100
AcDbLine
 10
11.06059171754264
 20
18.610623553049
 30
13.375
 11
11.43559171754264
 21
18.610623553049
 31
13.375
  0
LINE
  5
16E
330
1F
100
AcDbEntity
  8
AL Base
100
AcDbLine
 10
11.43559171754264
 20
-10.13937644695099
 30
13.375
 11
11.43559171754264
 21
18.610623553049
 31
13.375
  0
LINE
  5
16F
330
1F
100
AcDbEntity
  8
AL Base
100
AcDbLine
 10
11.06059171754264
 20
18.610623553049
 30
13.375
 11
11.06059171754264
 21
18.610623553049
 31
14.625
  0
LINE
  5
170
330
1F
100
AcDbEntity
  8
AL Base
100
AcDbLine
 10
11.06059171754264
 20
18.610623553049
 30
14.625
 11
11.43559171754264
 21
18.610623553049
 31
14.625
  0
LINE
  5
171
330
1F
100
AcDbEntity
  8
AL Base
100
AcDbLine
 10
11.43559171754264
 20
18.610623553049
 30
13.375
 11
11.43559171754264
 21
18.610623553049
 31
14.625
  0
LINE
  5
172
330
1F
100
AcDbEntity
  8
AL Base
100
AcDbLine
 10
11.06059171754264
 20
18.610623553049
 30
14.625
 11
11.06059171754264
 21
-11.38937644695099
 31
14.625
  0
LINE
  5
173
330
1F
100
AcDbEntity
  8
AL Base
100
AcDbLine
 10
11.06059171754264
 20
-11.38937644695099
 30
14.625
 11
11.43559171754264
 21
-11.38937644695099
 31
14.625
  0
LINE
  5
174
330
1F
100
AcDbEntity
  8
AL Base
100
AcDbLine
 10
11.43559171754264
 20
18.610623553049
 30
14.625
 11
11.43559171754264
 21
-11.38937644695099
 31
14.625
  0
LINE
  5
175
330
1F
100
AcDbEntity
  8
AL Base
100
AcDbLine
 10
11.06059171754264
 20
-11.38937644695099
 30
14.625
 11
11.06059171754264
 21
-11.38937644695099
 31
0.0
  0
LINE
  5
176
330
1F
100
AcDbEntity
  8
AL Base
100
AcDbLine
 10
11.06059171754264
 20
-11.38937644695099
 30
0.0
 11
11.43559171754264
 21
-11.38937644695099
 31
0.0
  0
LINE
  5
177
330
1F
100
AcDbEntity
  8
AL Base
100
AcDbLine
 10
11.43559171754264
 20
-11.38937644695099
 30
14.625
 11
11.43559171754264
 21
-11.38937644695099
 31
0.0
  0
LINE
  5
178
330
1F
100
AcDbEntity
  8
AL Base
100
AcDbLine
 10
11.06059171754264
 20
-11.38937644695099
 30
0.0
 11
11.06059171754264
 21
18.610623553049
 31
0.0
  0
LINE
  5
179
330
1F
100
AcDbEntity
  8
AL Base
100
AcDbLine
 10
11.06059171754264
 20
18.610623553049
 30
0.0
 11
11.43559171754264
 21
18.610623553049
 31
0.0
  0
LINE
  5
17A
330
1F
100
AcDbEntity
  8
AL Base
100
AcDbLine
 10
11.43559171754264
 20
-11.38937644695099
 30
0.0
 11
11.43559171754264
 21
18.610623553049
 31
0.0
  0
LINE
  5
17B
330
1F
100
AcDbEntity
  8
AL Base
100
AcDbLine
 10
11.06059171754264
 20
18.610623553049
 30
0.0
 11
11.06059171754264
 21
18.610623553049
 31
1.25
  0
LINE
  5
17C
330
1F
100
AcDbEntity
  8
AL Base
100
AcDbLine
 10
11.43559171754264
 20
18.610623553049
 30
0.0
 11
11.43559171754264
 21
18.610623553049
 31
1.25
  0
LINE
  5
17D
330
1F
100
AcDbEntity
  8
AL Base
100
AcDbLine
 10
18.68559171754264
 20
18.985623553049
 30
1.25
 11
12.31059171754264
 21
18.985623553049
 31
1.25
  0
LINE
  5
17E
330
1F
100
AcDbEntity
  8
AL Base
100
AcDbLine
 10
12.31059171754264
 20
18.985623553049
 30
1.25
 11
12.31059171754264
 21
18.610623553049
 31
1.25
  0
LINE
  5
17F
330
1F
100
AcDbEntity
  8
AL Base
100
AcDbLine
 10
18.68559171754264
 20
18.610623553049
 30
1.25
 11
12.31059171754264
 21
18.610623553049
 31
1.25
  0
LINE
  5
180
330
1F
100
AcDbEntity
  8
AL Base
100
AcDbLine
 10
18.68559171754264
 20
18.985623553049
 30
1.25
 11
18.68559171754264
 21
18.610623553049
 31
1.25
  0
LINE
  5
181
330
1F
100
AcDbEntity
  8
AL Base
100
AcDbLine
 10
12.31059171754264
 20
18.985623553049
 30
1.25
 11
12.31059171754264
 21
18.985623553049
 31
13.375
  0
LINE
  5
182
330
1F
100
AcDbEntity
  8
AL Base
100
AcDbLine
 10
12.31059171754264
 20
18.985623553049
 30
13.375
 11
12.31059171754264
 21
18.610623553049
 31
13.375
  0
LINE
  5
183
330
1F
100
AcDbEntity
  8
AL Base
100
AcDbLine
 10
12.31059171754264
 20
18.610623553049
 30
1.25
 11
12.31059171754264
 21
18.610623553049
 31
13.375
  0
LINE
  5
184
330
1F
100
AcDbEntity
  8
AL Base
100
AcDbLine
 10
12.31059171754264
 20
18.985623553049
 30
13.375
 11
18.68559171754264
 21
18.985623553049
 31
13.375
  0
LINE
  5
185
330
1F
100
AcDbEntity
  8
AL Base
100
AcDbLine
 10
18.68559171754264
 20
18.985623553049
 30
13.375
 11
18.68559171754264
 21
18.610623553049
 31
13.375
  0
LINE
  5
186
330
1F
100
AcDbEntity
  8
AL Base
100
AcDbLine
 10
12.31059171754264
 20
18.610623553049
 30
13.375
 11
18.68559171754264
 21
18.610623553049
 31
13.375
  0
LINE
  5
187
330
1F
100
AcDbEntity
  8
AL Base
100
AcDbLine
 10
18.68559171754264
 20
18.985623553049
 30
13.375
 11
18.68559171754264
 21
18.985623553049
 31
14.625
  0
LINE
  5
188
330
1F
100
AcDbEntity
  8
AL Base
100
AcDbLine
 10
18.68559171754264
 20
18.985623553049
 30
14.625
 11
18.68559171754264
 21
18.610623553049
 31
14.625
  0
LINE
  5
189
330
1F
100
AcDbEntity
  8
AL Base
100
AcDbLine
 10
18.68559171754264
 20
18.610623553049
 30
13.375
 11
18.68559171754264
 21
18.610623553049
 31
14.625
  0
LINE
  5
18A
330
1F
100
AcDbEntity
  8
AL Base
100
AcDbLine
 10
18.68559171754264
 20
18.985623553049
 30
14.625
 11
11.06059171754264
 21
18.985623553049
 31
14.625
  0
LINE
  5
18B
330
1F
100
AcDbEntity
  8
AL Base
100
AcDbLine
 10
11.06059171754264
 20
18.985623553049
 30
14.625
 11
11.06059171754264
 21
18.610623553049
 31
14.625
  0
LINE
  5
18C
330
1F
100
AcDbEntity
  8
AL Base
100
AcDbLine
 10
18.68559171754264
 20
18.610623553049
 30
14.625
 11
11.06059171754264
 21
18.610623553049
 31
14.625
  0
LINE
  5
18D
330
1F
100
AcDbEntity
  8
AL Base
100
AcDbLine
 10
11.06059171754264
 20
18.985623553049
 30
14.625
 11
11.06059171754264
 21
18.985623553049
 31
0.0
  0
LINE
  5
18E
330
1F
100
AcDbEntity
  8
AL Base
100
AcDbLine
 10
11.06059171754264
 20
18.985623553049
 30
0.0
 11
11.06059171754264
 21
18.610623553049
 31
0.0
  0
LINE
  5
18F
330
1F
100
AcDbEntity
  8
AL Base
100
AcDbLine
 10
11.06059171754264
 20
18.610623553049
 30
14.625
 11
11.06059171754264
 21
18.610623553049
 31
0.0
  0
LINE
  5
190
330
1F
100
AcDbEntity
  8
AL Base
100
AcDbLine
 10
11.06059171754264
 20
18.985623553049
 30
0.0
 11
18.68559171754264
 21
18.985623553049
 31
0.0
  0
LINE
  5
191
330
1F
100
AcDbEntity
  8
AL Base
100
AcDbLine
 10
18.68559171754264
 20
18.985623553049
 30
0.0
 11
18.68559171754264
 21
18.610623553049
 31
0.0
  0
LINE
  5
192
330
1F
100
AcDbEntity
  8
AL Base
100
AcDbLine
 10
11.06059171754264
 20
18.610623553049
 30
0.0
 11
18.68559171754264
 21
18.610623553049
 31
0.0
  0
LINE
  5
193
330
1F
100
AcDbEntity
  8
AL Base
100
AcDbLine
 10
18.68559171754264
 20
18.985623553049
 30
0.0
 11
18.68559171754264
 21
18.985623553049
 31
1.25
  0
LINE
  5
194
330
1F
100
AcDbEntity
  8
AL Base
100
AcDbLine
 10
18.68559171754264
 20
18.610623553049
 30
0.0
 11
18.68559171754264
 21
18.610623553049
 31
1.25
  0
LINE
  5
195
330
1F
100
AcDbEntity
  8
AL Base
100
AcDbLine
 10
19.06059171754264
 20
-18.639376446951
 30
1.25
 11
19.06059171754264
 21
-18.639376446951
 31
0.0
  0
LINE
  5
196
330
1F
100
AcDbEntity
  8
AL Base
100
AcDbLine
 10
19.06059171754264
 20
-18.639376446951
 30
0.0
 11
19.06059171754264
 21
18.985623553049
 31
0.0
  0
LINE
  5
197
330
1F
100
AcDbEntity
  8
AL Base
100
AcDbLine
 10
19.06059171754264
 20
18.985623553049
 30
0.0
 11
19.06059171754264
 21
18.985623553049
 31
14.625
  0
LINE
  5
198
330
1F
100
AcDbEntity
  8
AL Base
100
AcDbLine
 10
19.06059171754264
 20
18.985623553049
 30
14.625
 11
19.06059171754264
 21
-18.639376446951
 31
14.625
  0
LINE
  5
199
330
1F
100
AcDbEntity
  8
AL Base
100
AcDbLine
 10
19.06059171754264
 20
-18.639376446951
 30
14.625
 11
19.06059171754264
 21
-18.639376446951
 31
13.375
  0
POLYLINE
  5
19A
330
1F
100
AcDbEntity
  8
AL Base
100
AcDb2dPolyline
 66
     1
 10
0.0
 20
0.0
 30
19.06059171754264
210
1.0
220
0.0
230
0.0
  0
VERTEX
  5
19B
330
19A
100
AcDbEntity
  8
AL Base
100
AcDbVertex
100
AcDb2dVertex
 10
-18.639376446951
 20
13.375
 30
19.06059171754264
  0
VERTEX
  5
19C
330
19A
100
AcDbEntity
  8
AL Base
100
AcDbVertex
100
AcDb2dVertex
 10
17.735623553049
 20
13.375
 30
19.06059171754264
  0
VERTEX
  5
19D
330
19A
100
AcDbEntity
  8
AL Base
100
AcDbVertex
100
AcDb2dVertex
 10
17.735623553049
 20
1.25
 30
19.06059171754264
  0
VERTEX
  5
19E
330
19A
100
AcDbEntity
  8
AL Base
100
AcDbVertex
100
AcDb2dVertex
 10
-18.639376446951
 20
1.25
 30
19.06059171754264
  0
SEQEND
  5
19F
330
19A
100
AcDbEntity
  8
AL Base
  0
LINE
  5
1A0
330
1F
100
AcDbEntity
  8
AL Base
100
AcDbLine
 10
18.68559171754264
 20
18.985623553049
 30
1.25
 11
18.68559171754264
 21
18.985623553049
 31
0.0
  0
LINE
  5
1A1
330
1F
100
AcDbEntity
  8
AL Base
100
AcDbLine
 10
18.68559171754264
 20
18.985623553049
 30
0.0
 11
11.06059171754264
 21
18.985623553049
 31
0.0
  0
LINE
  5
1A2
330
1F
100
AcDbEntity
  8
AL Base
100
AcDbLine
 10
11.06059171754264
 20
18.985623553049
 30
0.0
 11
11.06059171754264
 21
18.985623553049
 31
14.625
  0
LINE
  5
1A3
330
1F
100
AcDbEntity
  8
AL Base
100
AcDbLine
 10
11.06059171754264
 20
18.985623553049
 30
14.625
 11
18.68559171754264
 21
18.985623553049
 31
14.625
  0
LINE
  5
1A4
330
1F
100
AcDbEntity
  8
AL Base
100
AcDbLine
 10
18.68559171754264
 20
18.985623553049
 30
14.625
 11
18.68559171754264
 21
18.985623553049
 31
13.375
  0
POLYLINE
  5
1A5
330
1F
100
AcDbEntity
  8
AL Base
100
AcDb2dPolyline
 66
     1
 10
0.0
 20
0.0
 30
18.985623553049
210
0.0
220
1.0
230
0.0
  0
VERTEX
  5
1A6
330
1A5
100
AcDbEntity
  8
AL Base
100
AcDbVertex
100
AcDb2dVertex
 10
-18.68559171754264
 20
13.375
 30
18.985623553049
  0
VERTEX
  5
1A7
330
1A5
100
AcDbEntity
  8
AL Base
100
AcDbVertex
100
AcDb2dVertex
 10
-12.31059171754264
 20
13.375
 30
18.985623553049
  0
VERTEX
  5
1A8
330
1A5
100
AcDbEntity
  8
AL Base
100
AcDbVertex
100
AcDb2dVertex
 10
-12.31059171754264
 20
1.25
 30
18.985623553049
  0
VERTEX
  5
1A9
330
1A5
100
AcDbEntity
  8
AL Base
100
AcDbVertex
100
AcDb2dVertex
 10
-18.68559171754264
 20
1.25
 30
18.985623553049
  0
SEQEND
  5
1AA
330
1A5
100
AcDbEntity
  8
AL Base
  0
LINE
  5
1AB
330
1F
100
AcDbEntity
  8
AL Base
100
AcDbLine
 10
11.06059171754264
 20
18.610623553049
 30
1.25
 11
11.06059171754264
 21
18.610623553049
 31
0.0
  0
LINE
  5
1AC
330
1F
100
AcDbEntity
  8
AL Base
100
AcDbLine
 10
11.06059171754264
 20
18.610623553049
 30
0.0
 11
11.06059171754264
 21
-11.38937644695099
 31
0.0
  0
LINE
  5
1AD
330
1F
100
AcDbEntity
  8
AL Base
100
AcDbLine
 10
11.06059171754264
 20
-11.38937644695099
 30
0.0
 11
11.06059171754264
 21
-11.38937644695099
 31
14.625
  0
LINE
  5
1AE
330
1F
100
AcDbEntity
  8
AL Base
100
AcDbLine
 10
11.06059171754264
 20
-11.38937644695099
 30
14.625
 11
11.06059171754264
 21
18.610623553049
 31
14.625
  0
LINE
  5
1AF
330
1F
100
AcDbEntity
  8
AL Base
100
AcDbLine
 10
11.06059171754264
 20
18.610623553049
 30
14.625
 11
11.06059171754264
 21
18.610623553049
 31
13.375
  0
POLYLINE
  5
1B0
330
1F
100
AcDbEntity
  8
AL Base
100
AcDb2dPolyline
 66
     1
 10
0.0
 20
0.0
 30
11.06059171754264
210
1.0
220
0.0
230
0.0
  0
VERTEX
  5
1B1
330
1B0
100
AcDbEntity
  8
AL Base
100
AcDbVertex
100
AcDb2dVertex
 10
18.610623553049
 20
13.375
 30
11.06059171754264
  0
VERTEX
  5
1B2
330
1B0
100
AcDbEntity
  8
AL Base
100
AcDbVertex
100
AcDb2dVertex
 10
-10.13937644695099
 20
13.375
 30
11.06059171754264
  0
VERTEX
  5
1B3
330
1B0
100
AcDbEntity
  8
AL Base
100
AcDbVertex
100
AcDb2dVertex
 10
-10.13937644695099
 20
1.25
 30
11.06059171754264
  0
VERTEX
  5
1B4
330
1B0
100
AcDbEntity
  8
AL Base
100
AcDbVertex
100
AcDb2dVertex
 10
18.610623553049
 20
1.25
 30
11.06059171754264
  0
SEQEND
  5
1B5
330
1B0
100
AcDbEntity
  8
AL Base
  0
LINE
  5
1B6
330
1F
100
AcDbEntity
  8
AL Base
100
AcDbLine
 10
11.06059171754264
 20
-11.01437644695099
 30
14.625
 11
11.06059171754264
 21
-11.01437644695099
 31
13.375
  0
POLYLINE
  5
1B7
330
1F
100
AcDbEntity
  8
AL Base
100
AcDb2dPolyline
 66
     1
 10
0.0
 20
0.0
 30
-11.01437644695099
210
0.0
220
1.0
230
0.0
  0
VERTEX
  5
1B8
330
1B7
100
AcDbEntity
  8
AL Base
100
AcDbVertex
100
AcDb2dVertex
 10
-11.06059171754264
 20
13.375
 30
-11.01437644695099
  0
VERTEX
  5
1B9
330
1B7
100
AcDbEntity
  8
AL Base
100
AcDbVertex
100
AcDb2dVertex
 10
17.68940828245736
 20
13.37500000000001
 30
-11.01437644695099
  0
VERTEX
  5
1BA
330
1B7
100
AcDbEntity
  8
AL Base
100
AcDbVertex
100
AcDb2dVertex
 10
17.68940828245736
 20
1.25
 30
-11.01437644695099
  0
VERTEX
  5
1BB
330
1B7
100
AcDbEntity
  8
AL Base
100
AcDbVertex
100
AcDb2dVertex
 10
-11.06059171754264
 20
1.25
 30
-11.01437644695099
  0
SEQEND
  5
1BC
330
1B7
100
AcDbEntity
  8
AL Base
  0
LINE
  5
1BD
330
1F
100
AcDbEntity
  8
AL Base
100
AcDbLine
 10
11.06059171754264
 20
-11.01437644695099
 30
1.25
 11
11.06059171754264
 21
-11.01437644695099
 31
0.0
  0
LINE
  5
1BE
330
1F
100
AcDbEntity
  8
AL Base
100
AcDbLine
 10
11.06059171754264
 20
-11.01437644695099
 30
0.0
 11
-18.93940828245736
 21
-11.01437644695099
 31
0.0
  0
LINE
  5
1BF
330
1F
100
AcDbEntity
  8
AL Base
100
AcDbLine
 10
-18.93940828245736
 20
-11.01437644695099
 30
0.0
 11
-18.93940828245736
 21
-11.01437644695099
 31
14.625
  0
LINE
  5
1C0
330
1F
100
AcDbEntity
  8
AL Base
100
AcDbLine
 10
-18.93940828245736
 20
-11.01437644695099
 30
14.625
 11
11.06059171754264
 21
-11.01437644695099
 31
14.625
  0
LINE
  5
1C1
330
1F
100
AcDbEntity
  8
AL Base
100
AcDbLine
 10
-18.93940828245736
 20
-11.38937644695099
 30
1.25
 11
-18.93940828245736
 21
-11.38937644695099
 31
0.0
  0
LINE
  5
1C2
330
1F
100
AcDbEntity
  8
AL Base
100
AcDbLine
 10
-18.93940828245736
 20
-11.38937644695099
 30
0.0
 11
-18.93940828245736
 21
-19.01437644695099
 31
0.0
  0
LINE
  5
1C3
330
1F
100
AcDbEntity
  8
AL Base
100
AcDbLine
 10
-18.93940828245736
 20
-19.01437644695099
 30
0.0
 11
-18.93940828245736
 21
-19.01437644695099
 31
14.625
  0
LINE
  5
1C4
330
1F
100
AcDbEntity
  8
AL Base
100
AcDbLine
 10
-18.93940828245736
 20
-19.01437644695099
 30
14.625
 11
-18.93940828245736
 21
-11.38937644695099
 31
14.625
  0
LINE
  5
1C5
330
1F
100
AcDbEntity
  8
AL Base
100
AcDbLine
 10
-18.93940828245736
 20
-11.38937644695099
 30
14.625
 11
-18.93940828245736
 21
-11.38937644695099
 31
13.375
  0
POLYLINE
  5
1C6
330
1F
100
AcDbEntity
  8
AL Base
100
AcDb2dPolyline
 66
     1
 10
0.0
 20
0.0
 30
-18.93940828245736
210
1.0
220
0.0
230
0.0
  0
VERTEX
  5
1C7
330
1C6
100
AcDbEntity
  8
AL Base
100
AcDbVertex
100
AcDb2dVertex
 10
-11.38937644695099
 20
13.375
 30
-18.93940828245736
  0
VERTEX
  5
1C8
330
1C6
100
AcDbEntity
  8
AL Base
100
AcDbVertex
100
AcDb2dVertex
 10
-17.764376446951
 20
13.375
 30
-18.93940828245736
  0
VERTEX
  5
1C9
330
1C6
100
AcDbEntity
  8
AL Base
100
AcDbVertex
100
AcDb2dVertex
 10
-17.76437644695099
 20
1.25
 30
-18.93940828245736
  0
VERTEX
  5
1CA
330
1C6
100
AcDbEntity
  8
AL Base
100
AcDbVertex
100
AcDb2dVertex
 10
-11.38937644695099
 20
1.25
 30
-18.93940828245736
  0
SEQEND
  5
1CB
330
1C6
100
AcDbEntity
  8
AL Base
  0
CIRCLE
  5
1CD
330
1F
100
AcDbEntity
  8
Glass Leg
100
AcDbCircle
 10
-14.75735931288072
 20
14.75735931288072
 30
14.625
 40
4.5
  0
LINE
  5
1CF
330
1F
100
AcDbEntity
  8
Glass Top
100
AcDbLine
 10
-19.0
 20
-21.0
 30
14.625
 11
19.0
 21
-21.0
 31
14.625
  0
ARC
  5
1D0
330
1F
100
AcDbEntity
  8
Glass Top
100
AcDbCircle
 10
19.0
 20
-19.0
 30
14.625
 40
2.0
100
AcDbArc
 50
270.0
 51
0.0
  0
LINE
  5
1D1
330
1F
100
AcDbEntity
  8
Glass Top
100
AcDbLine
 10
21.0
 20
-19.0
 30
14.625
 11
21.0
 21
19.0
 31
14.625
  0
ARC
  5
1D2
330
1F
100
AcDbEntity
  8
Glass Top
100
AcDbCircle
 10
19.0
 20
19.0
 30
14.625
 40
2.0
100
AcDbArc
 50
0.0
 51
90.0
  0
LINE
  5
1D3
330
1F
100
AcDbEntity
  8
Glass Top
100
AcDbLine
 10
19.0
 20
21.0
 30
14.625
 11
-19.0
 21
21.0
 31
14.625
  0
ARC
  5
1D4
330
1F
100
AcDbEntity
  8
Glass Top
100
AcDbCircle
 10
-19.0
 20
19.0
 30
14.625
 40
2.0
100
AcDbArc
 50
90.0
 51
180.0
  0
LINE
  5
1D5
330
1F
100
AcDbEntity
  8
Glass Top
100
AcDbLine
 10
-21.0
 20
19.0
 30
14.625
 11
-21.0
 21
-19.0
 31
14.625
  0
ARC
  5
1D6
330
1F
100
AcDbEntity
  8
Glass Top
100
AcDbCircle
 10
-19.0
 20
-19.0
 30
14.625
 40
2.0
100
AcDbArc
 50
180.0
 51
270.0
  0
CIRCLE
  5
1D7
330
1F
100
AcDbEntity
  8
AL Base
100
AcDbCircle
 10
-14.75735931288072
 20
14.75735931288072
 30
14.625
 40
4.375
  0
CIRCLE
  5
1D8
330
1F
100
AcDbEntity
  8
Glass Leg
100
AcDbCircle
 10
-14.75735931288072
 20
14.75735931288072
 30
14.625
 40
4.5
  0
LINE
  5
1D9
330
1F
100
AcDbEntity
  8
Glass Leg
100
AcDbLine
 10
-10.25735931288072
 20
14.75735931288072
 30
14.625
 11
-10.25735931288072
 21
14.75735931288072
 31
0.0
  0
CIRCLE
  5
1DA
330
1F
100
AcDbEntity
  8
Glass Leg
100
AcDbCircle
 10
-14.75735931288072
 20
14.75735931288072
 30
0.0
 40
4.5
  0
CIRCLE
  5
1DB
330
1F
100
AcDbEntity
  8
Glass Leg
100
AcDbCircle
 10
-14.75735931288072
 20
14.75735931288072
 30
14.625
 40
4.375
  0
LINE
  5
1DC
330
1F
100
AcDbEntity
  8
Glass Leg
100
AcDbLine
 10
-10.38235931288072
 20
14.75735931288072
 30
14.625
 11
-10.38235931288072
 21
14.75735931288072
 31
0.0
  0
CIRCLE
  5
1DD
330
1F
100
AcDbEntity
  8
Glass Leg
100
AcDbCircle
 10
-14.75735931288072
 20
14.75735931288072
 30
0.0
 40
4.375
  0
LINE
  5
1DE
330
1F
100
AcDbEntity
  8
AL Base
 60
     1
100
AcDbLine
 10
-83.43940828245735
 20
-11.38937644695099
 30
1.25
 11
-83.43940828245735
 21
-17.76437644695099
 31
1.25
  0
LINE
  5
1DF
330
1F
100
AcDbEntity
  8
AL Base
 60
     1
100
AcDbLine
 10
-83.43940828245735
 20
-17.76437644695099
 30
1.25
 11
-83.06440828245735
 21
-17.76437644695099
 31
1.25
  0
LINE
  5
1E0
330
1F
100
AcDbEntity
  8
AL Base
 60
     1
100
AcDbLine
 10
-83.06440828245735
 20
-11.38937644695099
 30
1.25
 11
-83.06440828245735
 21
-17.76437644695099
 31
1.25
  0
LINE
  5
1E1
330
1F
100
AcDbEntity
  8
AL Base
 60
     1
100
AcDbLine
 10
-83.43940828245735
 20
-11.38937644695099
 30
1.25
 11
-83.06440828245735
 21
-11.38937644695099
 31
1.25
  0
LINE
  5
1E2
330
1F
100
AcDbEntity
  8
AL Base
 60
     1
100
AcDbLine
 10
-83.43940828245735
 20
-17.76437644695099
 30
1.25
 11
-83.43940828245735
 21
-17.764376446951
 31
13.37499999999999
  0
LINE
  5
1E3
330
1F
100
AcDbEntity
  8
AL Base
 60
     1
100
AcDbLine
 10
-83.43940828245735
 20
-17.764376446951
 30
13.37499999999999
 11
-83.06440828245735
 21
-17.764376446951
 31
13.37499999999999
  0
LINE
  5
1E4
330
1F
100
AcDbEntity
  8
AL Base
 60
     1
100
AcDbLine
 10
-83.06440828245735
 20
-17.76437644695099
 30
1.25
 11
-83.06440828245735
 21
-17.764376446951
 31
13.37499999999999
  0
LINE
  5
1E5
330
1F
100
AcDbEntity
  8
AL Base
 60
     1
100
AcDbLine
 10
-83.43940828245735
 20
-17.764376446951
 30
13.37499999999999
 11
-83.43940828245735
 21
-11.38937644695099
 31
13.37499999999999
  0
LINE
  5
1E6
330
1F
100
AcDbEntity
  8
AL Base
 60
     1
100
AcDbLine
 10
-83.43940828245735
 20
-11.38937644695099
 30
13.37499999999999
 11
-83.06440828245735
 21
-11.38937644695099
 31
13.37499999999999
  0
LINE
  5
1E7
330
1F
100
AcDbEntity
  8
AL Base
 60
     1
100
AcDbLine
 10
-83.06440828245735
 20
-17.764376446951
 30
13.37499999999999
 11
-83.06440828245735
 21
-11.38937644695099
 31
13.37499999999999
  0
LINE
  5
1E8
330
1F
100
AcDbEntity
  8
AL Base
 60
     1
100
AcDbLine
 10
-83.43940828245735
 20
-11.38937644695099
 30
13.37499999999999
 11
-83.43940828245735
 21
-11.38937644695099
 31
14.62499999999999
  0
LINE
  5
1E9
330
1F
100
AcDbEntity
  8
AL Base
 60
     1
100
AcDbLine
 10
-83.43940828245735
 20
-11.38937644695099
 30
14.62499999999999
 11
-83.06440828245735
 21
-11.38937644695099
 31
14.62499999999999
  0
LINE
  5
1EA
330
1F
100
AcDbEntity
  8
AL Base
 60
     1
100
AcDbLine
 10
-83.06440828245735
 20
-11.38937644695099
 30
13.37499999999999
 11
-83.06440828245735
 21
-11.38937644695099
 31
14.62499999999999
  0
LINE
  5
1EB
330
1F
100
AcDbEntity
  8
AL Base
 60
     1
100
AcDbLine
 10
-83.43940828245735
 20
-11.38937644695099
 30
14.62499999999999
 11
-83.43940828245735
 21
-19.01437644695099
 31
14.62499999999999
  0
LINE
  5
1EC
330
1F
100
AcDbEntity
  8
AL Base
 60
     1
100
AcDbLine
 10
-83.43940828245735
 20
-19.01437644695099
 30
14.62499999999999
 11
-83.06440828245735
 21
-19.01437644695099
 31
14.62499999999999
  0
LINE
  5
1ED
330
1F
100
AcDbEntity
  8
AL Base
 60
     1
100
AcDbLine
 10
-83.06440828245735
 20
-11.38937644695099
 30
14.62499999999999
 11
-83.06440828245735
 21
-19.01437644695099
 31
14.62499999999999
  0
LINE
  5
1EE
330
1F
100
AcDbEntity
  8
AL Base
 60
     1
100
AcDbLine
 10
-83.43940828245735
 20
-19.01437644695099
 30
14.62499999999999
 11
-83.43940828245735
 21
-19.01437644695099
 31
0.0000000000000004
  0
LINE
  5
1EF
330
1F
100
AcDbEntity
  8
AL Base
 60
     1
100
AcDbLine
 10
-83.43940828245735
 20
-19.01437644695099
 30
0.0000000000000004
 11
-83.06440828245735
 21
-19.01437644695099
 31
0.0000000000000004
  0
LINE
  5
1F0
330
1F
100
AcDbEntity
  8
AL Base
 60
     1
100
AcDbLine
 10
-83.06440828245735
 20
-19.01437644695099
 30
14.62499999999999
 11
-83.06440828245735
 21
-19.01437644695099
 31
0.0000000000000004
  0
LINE
  5
1F1
330
1F
100
AcDbEntity
  8
AL Base
 60
     1
100
AcDbLine
 10
-83.43940828245735
 20
-19.01437644695099
 30
0.0000000000000004
 11
-83.43940828245735
 21
-11.38937644695099
 31
0.0000000000000004
  0
LINE
  5
1F2
330
1F
100
AcDbEntity
  8
AL Base
 60
     1
100
AcDbLine
 10
-83.43940828245735
 20
-11.38937644695099
 30
0.0000000000000004
 11
-83.06440828245735
 21
-11.38937644695099
 31
0.0000000000000004
  0
LINE
  5
1F3
330
1F
100
AcDbEntity
  8
AL Base
 60
     1
100
AcDbLine
 10
-83.06440828245735
 20
-19.01437644695099
 30
0.0000000000000004
 11
-83.06440828245735
 21
-11.38937644695099
 31
0.0000000000000004
  0
LINE
  5
1F4
330
1F
100
AcDbEntity
  8
AL Base
 60
     1
100
AcDbLine
 10
-83.43940828245735
 20
-11.38937644695099
 30
0.0000000000000004
 11
-83.43940828245735
 21
-11.38937644695099
 31
1.25
  0
LINE
  5
1F5
330
1F
100
AcDbEntity
  8
AL Base
 60
     1
100
AcDbLine
 10
-83.06440828245735
 20
-11.38937644695099
 30
0.0000000000000004
 11
-83.06440828245735
 21
-11.38937644695099
 31
1.25
  0
LINE
  5
1F6
330
1F
100
AcDbEntity
  8
AL Base
 60
     1
100
AcDbLine
 10
-83.06440828245735
 20
-19.01437644695099
 30
1.25
 11
-46.68940828245736
 21
-19.01437644695099
 31
1.25
  0
LINE
  5
1F7
330
1F
100
AcDbEntity
  8
AL Base
 60
     1
100
AcDbLine
 10
-46.68940828245736
 20
-19.01437644695099
 30
1.25
 11
-46.68940828245736
 21
-18.63937644695099
 31
1.25
  0
LINE
  5
1F8
330
1F
100
AcDbEntity
  8
AL Base
 60
     1
100
AcDbLine
 10
-83.06440828245735
 20
-18.63937644695099
 30
1.25
 11
-46.68940828245736
 21
-18.63937644695099
 31
1.25
  0
LINE
  5
1F9
330
1F
100
AcDbEntity
  8
AL Base
 60
     1
100
AcDbLine
 10
-83.06440828245735
 20
-19.01437644695099
 30
1.25
 11
-83.06440828245735
 21
-18.63937644695099
 31
1.25
  0
LINE
  5
1FA
330
1F
100
AcDbEntity
  8
AL Base
 60
     1
100
AcDbLine
 10
-46.68940828245736
 20
-19.01437644695099
 30
1.25
 11
-46.68940828245736
 21
-19.01437644695099
 31
13.375
  0
LINE
  5
1FB
330
1F
100
AcDbEntity
  8
AL Base
 60
     1
100
AcDbLine
 10
-46.68940828245736
 20
-19.01437644695099
 30
13.375
 11
-46.68940828245736
 21
-18.63937644695099
 31
13.375
  0
LINE
  5
1FC
330
1F
100
AcDbEntity
  8
AL Base
 60
     1
100
AcDbLine
 10
-46.68940828245736
 20
-18.63937644695099
 30
1.25
 11
-46.68940828245736
 21
-18.63937644695099
 31
13.375
  0
LINE
  5
1FD
330
1F
100
AcDbEntity
  8
AL Base
 60
     1
100
AcDbLine
 10
-46.68940828245736
 20
-19.01437644695099
 30
13.375
 11
-83.06440828245735
 21
-19.01437644695099
 31
13.375
  0
LINE
  5
1FE
330
1F
100
AcDbEntity
  8
AL Base
 60
     1
100
AcDbLine
 10
-83.06440828245735
 20
-19.01437644695099
 30
13.375
 11
-83.06440828245735
 21
-18.63937644695099
 31
13.375
  0
LINE
  5
1FF
330
1F
100
AcDbEntity
  8
AL Base
 60
     1
100
AcDbLine
 10
-46.68940828245736
 20
-18.63937644695099
 30
13.375
 11
-83.06440828245735
 21
-18.63937644695099
 31
13.375
  0
LINE
  5
200
330
1F
100
AcDbEntity
  8
AL Base
 60
     1
100
AcDbLine
 10
-83.06440828245735
 20
-19.01437644695099
 30
13.375
 11
-83.06440828245734
 21
-19.01437644695099
 31
14.625
  0
LINE
  5
201
330
1F
100
AcDbEntity
  8
AL Base
 60
     1
100
AcDbLine
 10
-83.06440828245734
 20
-19.01437644695099
 30
14.625
 11
-83.06440828245734
 21
-18.63937644695099
 31
14.625
  0
LINE
  5
202
330
1F
100
AcDbEntity
  8
AL Base
 60
     1
100
AcDbLine
 10
-83.06440828245735
 20
-18.63937644695099
 30
13.375
 11
-83.06440828245734
 21
-18.63937644695099
 31
14.625
  0
LINE
  5
203
330
1F
100
AcDbEntity
  8
AL Base
 60
     1
100
AcDbLine
 10
-83.06440828245734
 20
-19.01437644695099
 30
14.625
 11
-45.43940828245736
 21
-19.01437644695099
 31
14.625
  0
LINE
  5
204
330
1F
100
AcDbEntity
  8
AL Base
 60
     1
100
AcDbLine
 10
-45.43940828245736
 20
-19.01437644695099
 30
14.625
 11
-45.43940828245736
 21
-18.63937644695099
 31
14.625
  0
LINE
  5
205
330
1F
100
AcDbEntity
  8
AL Base
 60
     1
100
AcDbLine
 10
-83.06440828245734
 20
-18.63937644695099
 30
14.625
 11
-45.43940828245736
 21
-18.63937644695099
 31
14.625
  0
LINE
  5
206
330
1F
100
AcDbEntity
  8
AL Base
 60
     1
100
AcDbLine
 10
-45.43940828245736
 20
-19.01437644695099
 30
14.625
 11
-45.43940828245736
 21
-19.01437644695099
 31
0.0
  0
LINE
  5
207
330
1F
100
AcDbEntity
  8
AL Base
 60
     1
100
AcDbLine
 10
-45.43940828245736
 20
-19.01437644695099
 30
0.0
 11
-45.43940828245736
 21
-18.63937644695099
 31
0.0
  0
LINE
  5
208
330
1F
100
AcDbEntity
  8
AL Base
 60
     1
100
AcDbLine
 10
-45.43940828245736
 20
-18.63937644695099
 30
14.625
 11
-45.43940828245736
 21
-18.63937644695099
 31
0.0
  0
LINE
  5
209
330
1F
100
AcDbEntity
  8
AL Base
 60
     1
100
AcDbLine
 10
-45.43940828245736
 20
-19.01437644695099
 30
0.0
 11
-83.06440828245735
 21
-19.01437644695099
 31
0.0
  0
LINE
  5
20A
330
1F
100
AcDbEntity
  8
AL Base
 60
     1
100
AcDbLine
 10
-83.06440828245735
 20
-19.01437644695099
 30
0.0
 11
-83.06440828245735
 21
-18.63937644695099
 31
0.0
  0
LINE
  5
20B
330
1F
100
AcDbEntity
  8
AL Base
 60
     1
100
AcDbLine
 10
-45.43940828245736
 20
-18.63937644695099
 30
0.0
 11
-83.06440828245735
 21
-18.63937644695099
 31
0.0
  0
LINE
  5
20C
330
1F
100
AcDbEntity
  8
AL Base
 60
     1
100
AcDbLine
 10
-83.06440828245735
 20
-19.01437644695099
 30
0.0
 11
-83.06440828245735
 21
-19.01437644695099
 31
1.25
  0
LINE
  5
20D
330
1F
100
AcDbEntity
  8
AL Base
 60
     1
100
AcDbLine
 10
-83.06440828245735
 20
-18.63937644695099
 30
0.0
 11
-83.06440828245735
 21
-18.63937644695099
 31
1.25
  0
LINE
  5
20E
330
1F
100
AcDbEntity
  8
AL Base
 60
     1
100
AcDbLine
 10
-83.06440828245735
 20
-19.01437644695099
 30
1.25
 11
-83.06440828245735
 21
-19.01437644695099
 31
0.0
  0
LINE
  5
20F
330
1F
100
AcDbEntity
  8
AL Base
 60
     1
100
AcDbLine
 10
-83.06440828245735
 20
-19.01437644695099
 30
0.0
 11
-45.43940828245736
 21
-19.01437644695099
 31
0.0
  0
LINE
  5
210
330
1F
100
AcDbEntity
  8
AL Base
 60
     1
100
AcDbLine
 10
-45.43940828245736
 20
-19.01437644695099
 30
0.0
 11
-45.43940828245736
 21
-19.01437644695099
 31
14.625
  0
LINE
  5
211
330
1F
100
AcDbEntity
  8
AL Base
 60
     1
100
AcDbLine
 10
-45.43940828245736
 20
-19.01437644695099
 30
14.625
 11
-83.06440828245735
 21
-19.01437644695099
 31
14.625
  0
LINE
  5
212
330
1F
100
AcDbEntity
  8
AL Base
 60
     1
100
AcDbLine
 10
-83.06440828245735
 20
-19.01437644695099
 30
14.625
 11
-83.06440828245735
 21
-19.01437644695099
 31
13.375
  0
POLYLINE
  5
213
330
1F
100
AcDbEntity
  8
AL Base
 60
     1
100
AcDb2dPolyline
 66
     1
 10
0.0
 20
0.0
 30
-19.01437644695099
210
0.0
220
1.0
230
0.0
  0
VERTEX
  5
214
330
213
100
AcDbEntity
  8
AL Base
 60
     1
100
AcDbVertex
100
AcDb2dVertex
 10
83.06440828245735
 20
13.375
 30
-19.01437644695099
  0
VERTEX
  5
215
330
213
100
AcDbEntity
  8
AL Base
 60
     1
100
AcDbVertex
100
AcDb2dVertex
 10
46.68940828245736
 20
13.375
 30
-19.01437644695099
  0
VERTEX
  5
216
330
213
100
AcDbEntity
  8
AL Base
 60
     1
100
AcDbVertex
100
AcDb2dVertex
 10
46.68940828245737
 20
1.25
 30
-19.01437644695099
  0
VERTEX
  5
217
330
213
100
AcDbEntity
  8
AL Base
 60
     1
100
AcDbVertex
100
AcDb2dVertex
 10
83.06440828245735
 20
1.25
 30
-19.01437644695099
  0
SEQEND
  5
218
330
213
100
AcDbEntity
  8
AL Base
 60
     1
  0
LINE
  5
219
330
1F
100
AcDbEntity
  8
AL Base
 60
     1
100
AcDbLine
 10
-53.43940828245736
 20
-11.01437644695099
 30
14.625
 11
-83.43940828245735
 21
-11.01437644695099
 31
14.625
  0
LINE
  5
21A
330
1F
100
AcDbEntity
  8
AL Base
 60
     1
100
AcDbLine
 10
-83.43940828245735
 20
-11.01437644695099
 30
14.625
 11
-83.43940828245735
 21
-11.38937644695099
 31
14.625
  0
LINE
  5
21B
330
1F
100
AcDbEntity
  8
AL Base
 60
     1
100
AcDbLine
 10
-53.43940828245736
 20
-11.38937644695099
 30
14.625
 11
-83.43940828245735
 21
-11.38937644695099
 31
14.625
  0
LINE
  5
21C
330
1F
100
AcDbEntity
  8
AL Base
 60
     1
100
AcDbLine
 10
-53.43940828245736
 20
-11.01437644695099
 30
14.625
 11
-53.43940828245736
 21
-11.38937644695099
 31
14.625
  0
LINE
  5
21D
330
1F
100
AcDbEntity
  8
AL Base
 60
     1
100
AcDbLine
 10
-83.43940828245735
 20
-11.01437644695099
 30
14.625
 11
-83.43940828245735
 21
-11.01437644695099
 31
0.0
  0
LINE
  5
21E
330
1F
100
AcDbEntity
  8
AL Base
 60
     1
100
AcDbLine
 10
-83.43940828245735
 20
-11.01437644695099
 30
0.0
 11
-83.43940828245735
 21
-11.38937644695099
 31
0.0
  0
LINE
  5
21F
330
1F
100
AcDbEntity
  8
AL Base
 60
     1
100
AcDbLine
 10
-83.43940828245735
 20
-11.38937644695099
 30
14.625
 11
-83.43940828245735
 21
-11.38937644695099
 31
0.0
  0
LINE
  5
220
330
1F
100
AcDbEntity
  8
AL Base
 60
     1
100
AcDbLine
 10
-83.43940828245735
 20
-11.01437644695099
 30
0.0
 11
-53.43940828245736
 21
-11.01437644695099
 31
0.0
  0
LINE
  5
221
330
1F
100
AcDbEntity
  8
AL Base
 60
     1
100
AcDbLine
 10
-53.43940828245736
 20
-11.01437644695099
 30
0.0
 11
-53.43940828245736
 21
-11.38937644695099
 31
0.0
  0
LINE
  5
222
330
1F
100
AcDbEntity
  8
AL Base
 60
     1
100
AcDbLine
 10
-83.43940828245735
 20
-11.38937644695099
 30
0.0
 11
-53.43940828245736
 21
-11.38937644695099
 31
0.0
  0
LINE
  5
223
330
1F
100
AcDbEntity
  8
AL Base
 60
     1
100
AcDbLine
 10
-53.43940828245736
 20
-11.01437644695099
 30
0.0
 11
-53.43940828245736
 21
-11.01437644695099
 31
1.25
  0
LINE
  5
224
330
1F
100
AcDbEntity
  8
AL Base
 60
     1
100
AcDbLine
 10
-53.43940828245736
 20
-11.01437644695099
 30
1.25
 11
-53.43940828245736
 21
-11.38937644695099
 31
1.25
  0
LINE
  5
225
330
1F
100
AcDbEntity
  8
AL Base
 60
     1
100
AcDbLine
 10
-53.43940828245736
 20
-11.38937644695099
 30
0.0
 11
-53.43940828245736
 21
-11.38937644695099
 31
1.25
  0
LINE
  5
226
330
1F
100
AcDbEntity
  8
AL Base
 60
     1
100
AcDbLine
 10
-53.43940828245736
 20
-11.01437644695099
 30
1.25
 11
-82.18940828245735
 21
-11.01437644695099
 31
1.25
  0
LINE
  5
227
330
1F
100
AcDbEntity
  8
AL Base
 60
     1
100
AcDbLine
 10
-82.18940828245735
 20
-11.01437644695099
 30
1.25
 11
-82.18940828245735
 21
-11.38937644695099
 31
1.25
  0
LINE
  5
228
330
1F
100
AcDbEntity
  8
AL Base
 60
     1
100
AcDbLine
 10
-53.43940828245736
 20
-11.38937644695099
 30
1.25
 11
-82.18940828245735
 21
-11.38937644695099
 31
1.25
  0
LINE
  5
229
330
1F
100
AcDbEntity
  8
AL Base
 60
     1
100
AcDbLine
 10
-82.18940828245735
 20
-11.01437644695099
 30
1.25
 11
-82.18940828245735
 21
-11.01437644695099
 31
13.37500000000001
  0
LINE
  5
22A
330
1F
100
AcDbEntity
  8
AL Base
 60
     1
100
AcDbLine
 10
-82.18940828245735
 20
-11.01437644695099
 30
13.37500000000001
 11
-82.18940828245735
 21
-11.38937644695099
 31
13.37500000000001
  0
LINE
  5
22B
330
1F
100
AcDbEntity
  8
AL Base
 60
     1
100
AcDbLine
 10
-82.18940828245735
 20
-11.38937644695099
 30
1.25
 11
-82.18940828245735
 21
-11.38937644695099
 31
13.37500000000001
  0
LINE
  5
22C
330
1F
100
AcDbEntity
  8
AL Base
 60
     1
100
AcDbLine
 10
-82.18940828245735
 20
-11.01437644695099
 30
13.37500000000001
 11
-53.43940828245736
 21
-11.01437644695099
 31
13.375
  0
LINE
  5
22D
330
1F
100
AcDbEntity
  8
AL Base
 60
     1
100
AcDbLine
 10
-53.43940828245736
 20
-11.01437644695099
 30
13.375
 11
-53.43940828245736
 21
-11.38937644695099
 31
13.375
  0
LINE
  5
22E
330
1F
100
AcDbEntity
  8
AL Base
 60
     1
100
AcDbLine
 10
-82.18940828245735
 20
-11.38937644695099
 30
13.37500000000001
 11
-53.43940828245736
 21
-11.38937644695099
 31
13.375
  0
LINE
  5
22F
330
1F
100
AcDbEntity
  8
AL Base
 60
     1
100
AcDbLine
 10
-53.43940828245736
 20
-11.01437644695099
 30
13.375
 11
-53.43940828245736
 21
-11.01437644695099
 31
14.625
  0
LINE
  5
230
330
1F
100
AcDbEntity
  8
AL Base
 60
     1
100
AcDbLine
 10
-53.43940828245736
 20
-11.38937644695099
 30
13.375
 11
-53.43940828245736
 21
-11.38937644695099
 31
14.625
  0
LINE
  5
231
330
1F
100
AcDbEntity
  8
AL Base
 60
     1
100
AcDbLine
 10
-45.43940828245736
 20
-18.639376446951
 30
1.25
 11
-45.43940828245736
 21
17.735623553049
 31
1.25
  0
LINE
  5
232
330
1F
100
AcDbEntity
  8
AL Base
 60
     1
100
AcDbLine
 10
-45.43940828245736
 20
17.735623553049
 30
1.25
 11
-45.81440828245736
 21
17.735623553049
 31
1.25
  0
LINE
  5
233
330
1F
100
AcDbEntity
  8
AL Base
 60
     1
100
AcDbLine
 10
-45.81440828245736
 20
-18.639376446951
 30
1.25
 11
-45.81440828245736
 21
17.735623553049
 31
1.25
  0
LINE
  5
234
330
1F
100
AcDbEntity
  8
AL Base
 60
     1
100
AcDbLine
 10
-45.43940828245736
 20
-18.639376446951
 30
1.25
 11
-45.81440828245736
 21
-18.639376446951
 31
1.25
  0
LINE
  5
235
330
1F
100
AcDbEntity
  8
AL Base
 60
     1
100
AcDbLine
 10
-45.43940828245736
 20
17.735623553049
 30
1.25
 11
-45.43940828245736
 21
17.735623553049
 31
13.375
  0
LINE
  5
236
330
1F
100
AcDbEntity
  8
AL Base
 60
     1
100
AcDbLine
 10
-45.43940828245736
 20
17.735623553049
 30
13.375
 11
-45.81440828245736
 21
17.735623553049
 31
13.375
  0
LINE
  5
237
330
1F
100
AcDbEntity
  8
AL Base
 60
     1
100
AcDbLine
 10
-45.81440828245736
 20
17.735623553049
 30
1.25
 11
-45.81440828245736
 21
17.735623553049
 31
13.375
  0
LINE
  5
238
330
1F
100
AcDbEntity
  8
AL Base
 60
     1
100
AcDbLine
 10
-45.43940828245736
 20
17.735623553049
 30
13.375
 11
-45.43940828245736
 21
-18.639376446951
 31
13.375
  0
LINE
  5
239
330
1F
100
AcDbEntity
  8
AL Base
 60
     1
100
AcDbLine
 10
-45.43940828245736
 20
-18.639376446951
 30
13.375
 11
-45.81440828245736
 21
-18.639376446951
 31
13.375
  0
LINE
  5
23A
330
1F
100
AcDbEntity
  8
AL Base
 60
     1
100
AcDbLine
 10
-45.81440828245736
 20
17.735623553049
 30
13.375
 11
-45.81440828245736
 21
-18.639376446951
 31
13.375
  0
LINE
  5
23B
330
1F
100
AcDbEntity
  8
AL Base
 60
     1
100
AcDbLine
 10
-45.43940828245736
 20
-18.639376446951
 30
13.375
 11
-45.43940828245736
 21
-18.639376446951
 31
14.625
  0
LINE
  5
23C
330
1F
100
AcDbEntity
  8
AL Base
 60
     1
100
AcDbLine
 10
-45.43940828245736
 20
-18.639376446951
 30
14.625
 11
-45.81440828245736
 21
-18.639376446951
 31
14.625
  0
LINE
  5
23D
330
1F
100
AcDbEntity
  8
AL Base
 60
     1
100
AcDbLine
 10
-45.81440828245736
 20
-18.639376446951
 30
13.375
 11
-45.81440828245736
 21
-18.639376446951
 31
14.625
  0
LINE
  5
23E
330
1F
100
AcDbEntity
  8
AL Base
 60
     1
100
AcDbLine
 10
-45.43940828245736
 20
-18.639376446951
 30
14.625
 11
-45.43940828245736
 21
18.985623553049
 31
14.625
  0
LINE
  5
23F
330
1F
100
AcDbEntity
  8
AL Base
 60
     1
100
AcDbLine
 10
-45.43940828245736
 20
18.985623553049
 30
14.625
 11
-45.81440828245736
 21
18.985623553049
 31
14.625
  0
LINE
  5
240
330
1F
100
AcDbEntity
  8
AL Base
 60
     1
100
AcDbLine
 10
-45.81440828245736
 20
-18.639376446951
 30
14.625
 11
-45.81440828245736
 21
18.985623553049
 31
14.625
  0
LINE
  5
241
330
1F
100
AcDbEntity
  8
AL Base
 60
     1
100
AcDbLine
 10
-45.43940828245736
 20
18.985623553049
 30
14.625
 11
-45.43940828245736
 21
18.985623553049
 31
0.0000000000000004
  0
LINE
  5
242
330
1F
100
AcDbEntity
  8
AL Base
 60
     1
100
AcDbLine
 10
-45.43940828245736
 20
18.985623553049
 30
0.0000000000000004
 11
-45.81440828245736
 21
18.985623553049
 31
0.0000000000000004
  0
LINE
  5
243
330
1F
100
AcDbEntity
  8
AL Base
 60
     1
100
AcDbLine
 10
-45.81440828245736
 20
18.985623553049
 30
14.625
 11
-45.81440828245736
 21
18.985623553049
 31
0.0000000000000004
  0
LINE
  5
244
330
1F
100
AcDbEntity
  8
AL Base
 60
     1
100
AcDbLine
 10
-45.43940828245736
 20
18.985623553049
 30
0.0000000000000004
 11
-45.43940828245736
 21
-18.639376446951
 31
0.0000000000000004
  0
LINE
  5
245
330
1F
100
AcDbEntity
  8
AL Base
 60
     1
100
AcDbLine
 10
-45.43940828245736
 20
-18.639376446951
 30
0.0000000000000004
 11
-45.81440828245736
 21
-18.639376446951
 31
0.0000000000000004
  0
LINE
  5
246
330
1F
100
AcDbEntity
  8
AL Base
 60
     1
100
AcDbLine
 10
-45.81440828245736
 20
18.985623553049
 30
0.0000000000000004
 11
-45.81440828245736
 21
-18.639376446951
 31
0.0000000000000004
  0
LINE
  5
247
330
1F
100
AcDbEntity
  8
AL Base
 60
     1
100
AcDbLine
 10
-45.43940828245736
 20
-18.639376446951
 30
0.0000000000000004
 11
-45.43940828245736
 21
-18.639376446951
 31
1.25
  0
LINE
  5
248
330
1F
100
AcDbEntity
  8
AL Base
 60
     1
100
AcDbLine
 10
-45.81440828245736
 20
-18.639376446951
 30
0.0000000000000004
 11
-45.81440828245736
 21
-18.639376446951
 31
1.25
  0
LINE
  5
249
330
1F
100
AcDbEntity
  8
AL Base
 60
     1
100
AcDbLine
 10
-53.43940828245736
 20
18.610623553049
 30
1.25
 11
-53.43940828245736
 21
-10.13937644695099
 31
1.25
  0
LINE
  5
24A
330
1F
100
AcDbEntity
  8
AL Base
 60
     1
100
AcDbLine
 10
-53.43940828245736
 20
-10.13937644695099
 30
1.25
 11
-53.06440828245736
 21
-10.13937644695099
 31
1.25
  0
LINE
  5
24B
330
1F
100
AcDbEntity
  8
AL Base
 60
     1
100
AcDbLine
 10
-53.06440828245736
 20
18.610623553049
 30
1.25
 11
-53.06440828245736
 21
-10.13937644695099
 31
1.25
  0
LINE
  5
24C
330
1F
100
AcDbEntity
  8
AL Base
 60
     1
100
AcDbLine
 10
-53.43940828245736
 20
18.610623553049
 30
1.25
 11
-53.06440828245736
 21
18.610623553049
 31
1.25
  0
LINE
  5
24D
330
1F
100
AcDbEntity
  8
AL Base
 60
     1
100
AcDbLine
 10
-53.43940828245736
 20
-10.13937644695099
 30
1.25
 11
-53.43940828245736
 21
-10.13937644695099
 31
13.375
  0
LINE
  5
24E
330
1F
100
AcDbEntity
  8
AL Base
 60
     1
100
AcDbLine
 10
-53.43940828245736
 20
-10.13937644695099
 30
13.375
 11
-53.06440828245736
 21
-10.13937644695099
 31
13.375
  0
LINE
  5
24F
330
1F
100
AcDbEntity
  8
AL Base
 60
     1
100
AcDbLine
 10
-53.06440828245736
 20
-10.13937644695099
 30
1.25
 11
-53.06440828245736
 21
-10.13937644695099
 31
13.375
  0
LINE
  5
250
330
1F
100
AcDbEntity
  8
AL Base
 60
     1
100
AcDbLine
 10
-53.43940828245736
 20
-10.13937644695099
 30
13.375
 11
-53.43940828245736
 21
18.610623553049
 31
13.375
  0
LINE
  5
251
330
1F
100
AcDbEntity
  8
AL Base
 60
     1
100
AcDbLine
 10
-53.43940828245736
 20
18.610623553049
 30
13.375
 11
-53.06440828245736
 21
18.610623553049
 31
13.375
  0
LINE
  5
252
330
1F
100
AcDbEntity
  8
AL Base
 60
     1
100
AcDbLine
 10
-53.06440828245736
 20
-10.13937644695099
 30
13.375
 11
-53.06440828245736
 21
18.610623553049
 31
13.375
  0
LINE
  5
253
330
1F
100
AcDbEntity
  8
AL Base
 60
     1
100
AcDbLine
 10
-53.43940828245736
 20
18.610623553049
 30
13.375
 11
-53.43940828245736
 21
18.610623553049
 31
14.625
  0
LINE
  5
254
330
1F
100
AcDbEntity
  8
AL Base
 60
     1
100
AcDbLine
 10
-53.43940828245736
 20
18.610623553049
 30
14.625
 11
-53.06440828245736
 21
18.610623553049
 31
14.625
  0
LINE
  5
255
330
1F
100
AcDbEntity
  8
AL Base
 60
     1
100
AcDbLine
 10
-53.06440828245736
 20
18.610623553049
 30
13.375
 11
-53.06440828245736
 21
18.610623553049
 31
14.625
  0
LINE
  5
256
330
1F
100
AcDbEntity
  8
AL Base
 60
     1
100
AcDbLine
 10
-53.43940828245736
 20
18.610623553049
 30
14.625
 11
-53.43940828245736
 21
-11.38937644695099
 31
14.625
  0
LINE
  5
257
330
1F
100
AcDbEntity
  8
AL Base
 60
     1
100
AcDbLine
 10
-53.43940828245736
 20
-11.38937644695099
 30
14.625
 11
-53.06440828245736
 21
-11.38937644695099
 31
14.625
  0
LINE
  5
258
330
1F
100
AcDbEntity
  8
AL Base
 60
     1
100
AcDbLine
 10
-53.06440828245736
 20
18.610623553049
 30
14.625
 11
-53.06440828245736
 21
-11.38937644695099
 31
14.625
  0
LINE
  5
259
330
1F
100
AcDbEntity
  8
AL Base
 60
     1
100
AcDbLine
 10
-53.43940828245736
 20
-11.38937644695099
 30
14.625
 11
-53.43940828245736
 21
-11.38937644695099
 31
0.0
  0
LINE
  5
25A
330
1F
100
AcDbEntity
  8
AL Base
 60
     1
100
AcDbLine
 10
-53.43940828245736
 20
-11.38937644695099
 30
0.0
 11
-53.06440828245736
 21
-11.38937644695099
 31
0.0
  0
LINE
  5
25B
330
1F
100
AcDbEntity
  8
AL Base
 60
     1
100
AcDbLine
 10
-53.06440828245736
 20
-11.38937644695099
 30
14.625
 11
-53.06440828245736
 21
-11.38937644695099
 31
0.0
  0
LINE
  5
25C
330
1F
100
AcDbEntity
  8
AL Base
 60
     1
100
AcDbLine
 10
-53.43940828245736
 20
-11.38937644695099
 30
0.0
 11
-53.43940828245736
 21
18.610623553049
 31
0.0
  0
LINE
  5
25D
330
1F
100
AcDbEntity
  8
AL Base
 60
     1
100
AcDbLine
 10
-53.43940828245736
 20
18.610623553049
 30
0.0
 11
-53.06440828245736
 21
18.610623553049
 31
0.0
  0
LINE
  5
25E
330
1F
100
AcDbEntity
  8
AL Base
 60
     1
100
AcDbLine
 10
-53.06440828245736
 20
-11.38937644695099
 30
0.0
 11
-53.06440828245736
 21
18.610623553049
 31
0.0
  0
LINE
  5
25F
330
1F
100
AcDbEntity
  8
AL Base
 60
     1
100
AcDbLine
 10
-53.43940828245736
 20
18.610623553049
 30
0.0
 11
-53.43940828245736
 21
18.610623553049
 31
1.25
  0
LINE
  5
260
330
1F
100
AcDbEntity
  8
AL Base
 60
     1
100
AcDbLine
 10
-53.06440828245736
 20
18.610623553049
 30
0.0
 11
-53.06440828245736
 21
18.610623553049
 31
1.25
  0
LINE
  5
261
330
1F
100
AcDbEntity
  8
AL Base
 60
     1
100
AcDbLine
 10
-45.81440828245736
 20
18.985623553049
 30
1.25
 11
-52.18940828245736
 21
18.985623553049
 31
1.25
  0
LINE
  5
262
330
1F
100
AcDbEntity
  8
AL Base
 60
     1
100
AcDbLine
 10
-52.18940828245736
 20
18.985623553049
 30
1.25
 11
-52.18940828245736
 21
18.610623553049
 31
1.25
  0
LINE
  5
263
330
1F
100
AcDbEntity
  8
AL Base
 60
     1
100
AcDbLine
 10
-45.81440828245736
 20
18.610623553049
 30
1.25
 11
-52.18940828245736
 21
18.610623553049
 31
1.25
  0
LINE
  5
264
330
1F
100
AcDbEntity
  8
AL Base
 60
     1
100
AcDbLine
 10
-45.81440828245736
 20
18.985623553049
 30
1.25
 11
-45.81440828245736
 21
18.610623553049
 31
1.25
  0
LINE
  5
265
330
1F
100
AcDbEntity
  8
AL Base
 60
     1
100
AcDbLine
 10
-52.18940828245736
 20
18.985623553049
 30
1.25
 11
-52.18940828245736
 21
18.985623553049
 31
13.375
  0
LINE
  5
266
330
1F
100
AcDbEntity
  8
AL Base
 60
     1
100
AcDbLine
 10
-52.18940828245736
 20
18.985623553049
 30
13.375
 11
-52.18940828245736
 21
18.610623553049
 31
13.375
  0
LINE
  5
267
330
1F
100
AcDbEntity
  8
AL Base
 60
     1
100
AcDbLine
 10
-52.18940828245736
 20
18.610623553049
 30
1.25
 11
-52.18940828245736
 21
18.610623553049
 31
13.375
  0
LINE
  5
268
330
1F
100
AcDbEntity
  8
AL Base
 60
     1
100
AcDbLine
 10
-52.18940828245736
 20
18.985623553049
 30
13.375
 11
-45.81440828245736
 21
18.985623553049
 31
13.375
  0
LINE
  5
269
330
1F
100
AcDbEntity
  8
AL Base
 60
     1
100
AcDbLine
 10
-45.81440828245736
 20
18.985623553049
 30
13.375
 11
-45.81440828245736
 21
18.610623553049
 31
13.375
  0
LINE
  5
26A
330
1F
100
AcDbEntity
  8
AL Base
 60
     1
100
AcDbLine
 10
-52.18940828245736
 20
18.610623553049
 30
13.375
 11
-45.81440828245736
 21
18.610623553049
 31
13.375
  0
LINE
  5
26B
330
1F
100
AcDbEntity
  8
AL Base
 60
     1
100
AcDbLine
 10
-45.81440828245736
 20
18.985623553049
 30
13.375
 11
-45.81440828245736
 21
18.985623553049
 31
14.625
  0
LINE
  5
26C
330
1F
100
AcDbEntity
  8
AL Base
 60
     1
100
AcDbLine
 10
-45.81440828245736
 20
18.985623553049
 30
14.625
 11
-45.81440828245736
 21
18.610623553049
 31
14.625
  0
LINE
  5
26D
330
1F
100
AcDbEntity
  8
AL Base
 60
     1
100
AcDbLine
 10
-45.81440828245736
 20
18.610623553049
 30
13.375
 11
-45.81440828245736
 21
18.610623553049
 31
14.625
  0
LINE
  5
26E
330
1F
100
AcDbEntity
  8
AL Base
 60
     1
100
AcDbLine
 10
-45.81440828245736
 20
18.985623553049
 30
14.625
 11
-53.43940828245736
 21
18.985623553049
 31
14.625
  0
LINE
  5
26F
330
1F
100
AcDbEntity
  8
AL Base
 60
     1
100
AcDbLine
 10
-53.43940828245736
 20
18.985623553049
 30
14.625
 11
-53.43940828245736
 21
18.610623553049
 31
14.625
  0
LINE
  5
270
330
1F
100
AcDbEntity
  8
AL Base
 60
     1
100
AcDbLine
 10
-45.81440828245736
 20
18.610623553049
 30
14.625
 11
-53.43940828245736
 21
18.610623553049
 31
14.625
  0
LINE
  5
271
330
1F
100
AcDbEntity
  8
AL Base
 60
     1
100
AcDbLine
 10
-53.43940828245736
 20
18.985623553049
 30
14.625
 11
-53.43940828245736
 21
18.985623553049
 31
0.0
  0
LINE
  5
272
330
1F
100
AcDbEntity
  8
AL Base
 60
     1
100
AcDbLine
 10
-53.43940828245736
 20
18.985623553049
 30
0.0
 11
-53.43940828245736
 21
18.610623553049
 31
0.0
  0
LINE
  5
273
330
1F
100
AcDbEntity
  8
AL Base
 60
     1
100
AcDbLine
 10
-53.43940828245736
 20
18.610623553049
 30
14.625
 11
-53.43940828245736
 21
18.610623553049
 31
0.0
  0
LINE
  5
274
330
1F
100
AcDbEntity
  8
AL Base
 60
     1
100
AcDbLine
 10
-53.43940828245736
 20
18.985623553049
 30
0.0
 11
-45.81440828245736
 21
18.985623553049
 31
0.0
  0
LINE
  5
275
330
1F
100
AcDbEntity
  8
AL Base
 60
     1
100
AcDbLine
 10
-45.81440828245736
 20
18.985623553049
 30
0.0
 11
-45.81440828245736
 21
18.610623553049
 31
0.0
  0
LINE
  5
276
330
1F
100
AcDbEntity
  8
AL Base
 60
     1
100
AcDbLine
 10
-53.43940828245736
 20
18.610623553049
 30
0.0
 11
-45.81440828245736
 21
18.610623553049
 31
0.0
  0
LINE
  5
277
330
1F
100
AcDbEntity
  8
AL Base
 60
     1
100
AcDbLine
 10
-45.81440828245736
 20
18.985623553049
 30
0.0
 11
-45.81440828245736
 21
18.985623553049
 31
1.25
  0
LINE
  5
278
330
1F
100
AcDbEntity
  8
AL Base
 60
     1
100
AcDbLine
 10
-45.81440828245736
 20
18.610623553049
 30
0.0
 11
-45.81440828245736
 21
18.610623553049
 31
1.25
  0
LINE
  5
279
330
1F
100
AcDbEntity
  8
AL Base
 60
     1
100
AcDbLine
 10
-45.43940828245736
 20
-18.639376446951
 30
1.25
 11
-45.43940828245736
 21
-18.639376446951
 31
0.0
  0
LINE
  5
27A
330
1F
100
AcDbEntity
  8
AL Base
 60
     1
100
AcDbLine
 10
-45.43940828245736
 20
-18.639376446951
 30
0.0
 11
-45.43940828245736
 21
18.985623553049
 31
0.0
  0
LINE
  5
27B
330
1F
100
AcDbEntity
  8
AL Base
 60
     1
100
AcDbLine
 10
-45.43940828245736
 20
18.985623553049
 30
0.0
 11
-45.43940828245736
 21
18.985623553049
 31
14.625
  0
LINE
  5
27C
330
1F
100
AcDbEntity
  8
AL Base
 60
     1
100
AcDbLine
 10
-45.43940828245736
 20
18.985623553049
 30
14.625
 11
-45.43940828245736
 21
-18.639376446951
 31
14.625
  0
LINE
  5
27D
330
1F
100
AcDbEntity
  8
AL Base
 60
     1
100
AcDbLine
 10
-45.43940828245736
 20
-18.639376446951
 30
14.625
 11
-45.43940828245736
 21
-18.639376446951
 31
13.375
  0
POLYLINE
  5
27E
330
1F
100
AcDbEntity
  8
AL Base
 60
     1
100
AcDb2dPolyline
 66
     1
 10
0.0
 20
0.0
 30
-45.43940828245736
210
1.0
220
0.0
230
0.0
  0
VERTEX
  5
27F
330
27E
100
AcDbEntity
  8
AL Base
 60
     1
100
AcDbVertex
100
AcDb2dVertex
 10
-18.639376446951
 20
13.375
 30
-45.43940828245736
  0
VERTEX
  5
280
330
27E
100
AcDbEntity
  8
AL Base
 60
     1
100
AcDbVertex
100
AcDb2dVertex
 10
17.735623553049
 20
13.375
 30
-45.43940828245736
  0
VERTEX
  5
281
330
27E
100
AcDbEntity
  8
AL Base
 60
     1
100
AcDbVertex
100
AcDb2dVertex
 10
17.735623553049
 20
1.25
 30
-45.43940828245736
  0
VERTEX
  5
282
330
27E
100
AcDbEntity
  8
AL Base
 60
     1
100
AcDbVertex
100
AcDb2dVertex
 10
-18.639376446951
 20
1.25
 30
-45.43940828245736
  0
SEQEND
  5
283
330
27E
100
AcDbEntity
  8
AL Base
 60
     1
  0
LINE
  5
284
330
1F
100
AcDbEntity
  8
AL Base
 60
     1
100
AcDbLine
 10
-45.81440828245736
 20
18.985623553049
 30
1.25
 11
-45.81440828245736
 21
18.985623553049
 31
0.0
  0
LINE
  5
285
330
1F
100
AcDbEntity
  8
AL Base
 60
     1
100
AcDbLine
 10
-45.81440828245736
 20
18.985623553049
 30
0.0
 11
-53.43940828245736
 21
18.985623553049
 31
0.0
  0
LINE
  5
286
330
1F
100
AcDbEntity
  8
AL Base
 60
     1
100
AcDbLine
 10
-53.43940828245736
 20
18.985623553049
 30
0.0
 11
-53.43940828245736
 21
18.985623553049
 31
14.625
  0
LINE
  5
287
330
1F
100
AcDbEntity
  8
AL Base
 60
     1
100
AcDbLine
 10
-53.43940828245736
 20
18.985623553049
 30
14.625
 11
-45.81440828245736
 21
18.985623553049
 31
14.625
  0
LINE
  5
288
330
1F
100
AcDbEntity
  8
AL Base
 60
     1
100
AcDbLine
 10
-45.81440828245736
 20
18.985623553049
 30
14.625
 11
-45.81440828245736
 21
18.985623553049
 31
13.375
  0
POLYLINE
  5
289
330
1F
100
AcDbEntity
  8
AL Base
 60
     1
100
AcDb2dPolyline
 66
     1
 10
0.0
 20
0.0
 30
18.985623553049
210
0.0
220
1.0
230
0.0
  0
VERTEX
  5
28A
330
289
100
AcDbEntity
  8
AL Base
 60
     1
100
AcDbVertex
100
AcDb2dVertex
 10
45.81440828245736
 20
13.375
 30
18.985623553049
  0
VERTEX
  5
28B
330
289
100
AcDbEntity
  8
AL Base
 60
     1
100
AcDbVertex
100
AcDb2dVertex
 10
52.18940828245736
 20
13.375
 30
18.985623553049
  0
VERTEX
  5
28C
330
289
100
AcDbEntity
  8
AL Base
 60
     1
100
AcDbVertex
100
AcDb2dVertex
 10
52.18940828245736
 20
1.25
 30
18.985623553049
  0
VERTEX
  5
28D
330
289
100
AcDbEntity
  8
AL Base
 60
     1
100
AcDbVertex
100
AcDb2dVertex
 10
45.81440828245736
 20
1.25
 30
18.985623553049
  0
SEQEND
  5
28E
330
289
100
AcDbEntity
  8
AL Base
 60
     1
  0
LINE
  5
28F
330
1F
100
AcDbEntity
  8
AL Base
 60
     1
100
AcDbLine
 10
-53.43940828245736
 20
18.610623553049
 30
1.25
 11
-53.43940828245736
 21
18.610623553049
 31
0.0
  0
LINE
  5
290
330
1F
100
AcDbEntity
  8
AL Base
 60
     1
100
AcDbLine
 10
-53.43940828245736
 20
18.610623553049
 30
0.0
 11
-53.43940828245736
 21
-11.38937644695099
 31
0.0
  0
LINE
  5
291
330
1F
100
AcDbEntity
  8
AL Base
 60
     1
100
AcDbLine
 10
-53.43940828245736
 20
-11.38937644695099
 30
0.0
 11
-53.43940828245736
 21
-11.38937644695099
 31
14.625
  0
LINE
  5
292
330
1F
100
AcDbEntity
  8
AL Base
 60
     1
100
AcDbLine
 10
-53.43940828245736
 20
-11.38937644695099
 30
14.625
 11
-53.43940828245736
 21
18.610623553049
 31
14.625
  0
LINE
  5
293
330
1F
100
AcDbEntity
  8
AL Base
 60
     1
100
AcDbLine
 10
-53.43940828245736
 20
18.610623553049
 30
14.625
 11
-53.43940828245736
 21
18.610623553049
 31
13.375
  0
POLYLINE
  5
294
330
1F
100
AcDbEntity
  8
AL Base
 60
     1
100
AcDb2dPolyline
 66
     1
 10
0.0
 20
0.0
 30
-53.43940828245736
210
1.0
220
0.0
230
0.0
  0
VERTEX
  5
295
330
294
100
AcDbEntity
  8
AL Base
 60
     1
100
AcDbVertex
100
AcDb2dVertex
 10
18.610623553049
 20
13.375
 30
-53.43940828245736
  0
VERTEX
  5
296
330
294
100
AcDbEntity
  8
AL Base
 60
     1
100
AcDbVertex
100
AcDb2dVertex
 10
-10.13937644695099
 20
13.375
 30
-53.43940828245736
  0
VERTEX
  5
297
330
294
100
AcDbEntity
  8
AL Base
 60
     1
100
AcDbVertex
100
AcDb2dVertex
 10
-10.13937644695099
 20
1.25
 30
-53.43940828245736
  0
VERTEX
  5
298
330
294
100
AcDbEntity
  8
AL Base
 60
     1
100
AcDbVertex
100
AcDb2dVertex
 10
18.610623553049
 20
1.25
 30
-53.43940828245736
  0
SEQEND
  5
299
330
294
100
AcDbEntity
  8
AL Base
 60
     1
  0
LINE
  5
29A
330
1F
100
AcDbEntity
  8
AL Base
 60
     1
100
AcDbLine
 10
-53.43940828245736
 20
-11.01437644695099
 30
14.625
 11
-53.43940828245736
 21
-11.01437644695099
 31
13.375
  0
POLYLINE
  5
29B
330
1F
100
AcDbEntity
  8
AL Base
 60
     1
100
AcDb2dPolyline
 66
     1
 10
0.0
 20
0.0
 30
-11.01437644695099
210
0.0
220
1.0
230
0.0
  0
VERTEX
  5
29C
330
29B
100
AcDbEntity
  8
AL Base
 60
     1
100
AcDbVertex
100
AcDb2dVertex
 10
53.43940828245736
 20
13.375
 30
-11.01437644695099
  0
VERTEX
  5
29D
330
29B
100
AcDbEntity
  8
AL Base
 60
     1
100
AcDbVertex
100
AcDb2dVertex
 10
82.18940828245735
 20
13.37500000000001
 30
-11.01437644695099
  0
VERTEX
  5
29E
330
29B
100
AcDbEntity
  8
AL Base
 60
     1
100
AcDbVertex
100
AcDb2dVertex
 10
82.18940828245735
 20
1.25
 30
-11.01437644695099
  0
VERTEX
  5
29F
330
29B
100
AcDbEntity
  8
AL Base
 60
     1
100
AcDbVertex
100
AcDb2dVertex
 10
53.43940828245736
 20
1.25
 30
-11.01437644695099
  0
SEQEND
  5
2A0
330
29B
100
AcDbEntity
  8
AL Base
 60
     1
  0
LINE
  5
2A1
330
1F
100
AcDbEntity
  8
AL Base
 60
     1
100
AcDbLine
 10
-53.43940828245736
 20
-11.01437644695099
 30
1.25
 11
-53.43940828245736
 21
-11.01437644695099
 31
0.0
  0
LINE
  5
2A2
330
1F
100
AcDbEntity
  8
AL Base
 60
     1
100
AcDbLine
 10
-53.43940828245736
 20
-11.01437644695099
 30
0.0
 11
-83.43940828245735
 21
-11.01437644695099
 31
0.0
  0
LINE
  5
2A3
330
1F
100
AcDbEntity
  8
AL Base
 60
     1
100
AcDbLine
 10
-83.43940828245735
 20
-11.01437644695099
 30
0.0
 11
-83.43940828245735
 21
-11.01437644695099
 31
14.625
  0
LINE
  5
2A4
330
1F
100
AcDbEntity
  8
AL Base
 60
     1
100
AcDbLine
 10
-83.43940828245735
 20
-11.01437644695099
 30
14.625
 11
-53.43940828245736
 21
-11.01437644695099
 31
14.625
  0
LINE
  5
2A5
330
1F
100
AcDbEntity
  8
AL Base
 60
     1
100
AcDbLine
 10
-83.43940828245735
 20
-11.38937644695099
 30
1.25
 11
-83.43940828245735
 21
-11.38937644695099
 31
0.0
  0
LINE
  5
2A6
330
1F
100
AcDbEntity
  8
AL Base
 60
     1
100
AcDbLine
 10
-83.43940828245735
 20
-11.38937644695099
 30
0.0
 11
-83.43940828245735
 21
-19.01437644695099
 31
0.0
  0
LINE
  5
2A7
330
1F
100
AcDbEntity
  8
AL Base
 60
     1
100
AcDbLine
 10
-83.43940828245735
 20
-19.01437644695099
 30
0.0
 11
-83.43940828245735
 21
-19.01437644695099
 31
14.625
  0
LINE
  5
2A8
330
1F
100
AcDbEntity
  8
AL Base
 60
     1
100
AcDbLine
 10
-83.43940828245735
 20
-19.01437644695099
 30
14.625
 11
-83.43940828245735
 21
-11.38937644695099
 31
14.625
  0
LINE
  5
2A9
330
1F
100
AcDbEntity
  8
AL Base
 60
     1
100
AcDbLine
 10
-83.43940828245735
 20
-11.38937644695099
 30
14.625
 11
-83.43940828245735
 21
-11.38937644695099
 31
13.375
  0
POLYLINE
  5
2AA
330
1F
100
AcDbEntity
  8
AL Base
 60
     1
100
AcDb2dPolyline
 66
     1
 10
0.0
 20
0.0
 30
-83.43940828245735
210
1.0
220
0.0
230
0.0
  0
VERTEX
  5
2AB
330
2AA
100
AcDbEntity
  8
AL Base
 60
     1
100
AcDbVertex
100
AcDb2dVertex
 10
-11.38937644695099
 20
13.375
 30
-83.43940828245735
  0
VERTEX
  5
2AC
330
2AA
100
AcDbEntity
  8
AL Base
 60
     1
100
AcDbVertex
100
AcDb2dVertex
 10
-17.764376446951
 20
13.375
 30
-83.43940828245735
  0
VERTEX
  5
2AD
330
2AA
100
AcDbEntity
  8
AL Base
 60
     1
100
AcDbVertex
100
AcDb2dVertex
 10
-17.76437644695099
 20
1.25
 30
-83.43940828245735
  0
VERTEX
  5
2AE
330
2AA
100
AcDbEntity
  8
AL Base
 60
     1
100
AcDbVertex
100
AcDb2dVertex
 10
-11.38937644695099
 20
1.25
 30
-83.43940828245735
  0
SEQEND
  5
2AF
330
2AA
100
AcDbEntity
  8
AL Base
 60
     1
  0
CIRCLE
  5
2B0
330
1F
100
AcDbEntity
  8
Glass Leg
 60
     1
100
AcDbCircle
 10
-79.25735931288072
 20
14.75735931288072
 30
14.625
 40
4.5
  0
LINE
  5
2B1
330
1F
100
AcDbEntity
  8
Glass Top
 60
     1
100
AcDbLine
 10
-83.5
 20
-21.0
 30
14.625
 11
-45.5
 21
-21.0
 31
14.625
  0
ARC
  5
2B2
330
1F
100
AcDbEntity
  8
Glass Top
 60
     1
100
AcDbCircle
 10
-45.5
 20
-19.0
 30
14.625
 40
2.0
100
AcDbArc
 50
270.0
 51
0.0
  0
LINE
  5
2B3
330
1F
100
AcDbEntity
  8
Glass Top
 60
     1
100
AcDbLine
 10
-43.5
 20
-19.0
 30
14.625
 11
-43.5
 21
19.0
 31
14.625
  0
ARC
  5
2B4
330
1F
100
AcDbEntity
  8
Glass Top
 60
     1
100
AcDbCircle
 10
-45.5
 20
19.0
 30
14.625
 40
2.0
100
AcDbArc
 50
0.0
 51
90.0
  0
LINE
  5
2B5
330
1F
100
AcDbEntity
  8
Glass Top
 60
     1
100
AcDbLine
 10
-45.5
 20
21.0
 30
14.625
 11
-83.5
 21
21.0
 31
14.625
  0
ARC
  5
2B6
330
1F
100
AcDbEntity
  8
Glass Top
 60
     1
100
AcDbCircle
 10
-83.5
 20
19.0
 30
14.625
 40
2.0
100
AcDbArc
 50
90.0
 51
180.0
  0
LINE
  5
2B7
330
1F
100
AcDbEntity
  8
Glass Top
 60
     1
100
AcDbLine
 10
-85.5
 20
19.0
 30
14.625
 11
-85.5
 21
-19.0
 31
14.625
  0
ARC
  5
2B8
330
1F
100
AcDbEntity
  8
Glass Top
 60
     1
100
AcDbCircle
 10
-83.5
 20
-19.0
 30
14.625
 40
2.0
100
AcDbArc
 50
180.0
 51
270.0
  0
LINE
  5
2B9
330
1F
100
AcDbEntity
  8
Glass Top
 60
     1
100
AcDbLine
 10
-83.5
 20
-21.0
 30
14.625
 11
-45.5
 21
-21.0
 31
14.625
  0
LINE
  5
2BA
330
1F
100
AcDbEntity
  8
Glass Top
 60
     1
100
AcDbLine
 10
-45.5
 20
-21.0
 30
14.625
 11
-45.5
 21
-21.0
 31
15.0
  0
LINE
  5
2BB
330
1F
100
AcDbEntity
  8
Glass Top
 60
     1
100
AcDbLine
 10
-83.5
 20
-21.0
 30
15.0
 11
-45.5
 21
-21.0
 31
15.0
  0
LINE
  5
2BC
330
1F
100
AcDbEntity
  8
Glass Top
 60
     1
100
AcDbLine
 10
-83.5
 20
-21.0
 30
14.625
 11
-83.5
 21
-21.0
 31
15.0
  0
ARC
  5
2BD
330
1F
100
AcDbEntity
  8
Glass Top
 60
     1
100
AcDbCircle
 10
-45.5
 20
-19.0
 30
14.625
 40
1.999999999999996
100
AcDbArc
 50
270.0
 51
0.0000000000001018
  0
LINE
  5
2BE
330
1F
100
AcDbEntity
  8
Glass Top
 60
     1
100
AcDbLine
 10
-43.5
 20
-19.0
 30
14.625
 11
-43.5
 21
-19.0
 31
15.0
  0
ARC
  5
2BF
330
1F
100
AcDbEntity
  8
Glass Top
 60
     1
100
AcDbCircle
 10
-45.5
 20
-19.0
 30
15.0
 40
1.999999999999996
100
AcDbArc
 50
270.0
 51
0.0000000000001018
  0
LINE
  5
2C0
330
1F
100
AcDbEntity
  8
Glass Top
 60
     1
100
AcDbLine
 10
-43.5
 20
-19.0
 30
14.625
 11
-43.5
 21
19.0
 31
14.625
  0
LINE
  5
2C1
330
1F
100
AcDbEntity
  8
Glass Top
 60
     1
100
AcDbLine
 10
-43.5
 20
19.0
 30
14.625
 11
-43.5
 21
19.0
 31
15.0
  0
LINE
  5
2C2
330
1F
100
AcDbEntity
  8
Glass Top
 60
     1
100
AcDbLine
 10
-43.5
 20
-19.0
 30
15.0
 11
-43.5
 21
19.0
 31
15.0
  0
ARC
  5
2C3
330
1F
100
AcDbEntity
  8
Glass Top
 60
     1
100
AcDbCircle
 10
-45.5
 20
19.0
 30
14.625
 40
2.0
100
AcDbArc
 50
0.0000000000001018
 51
90.0
  0
LINE
  5
2C4
330
1F
100
AcDbEntity
  8
Glass Top
 60
     1
100
AcDbLine
 10
-45.5
 20
21.0
 30
14.625
 11
-45.5
 21
21.0
 31
15.0
  0
ARC
  5
2C5
330
1F
100
AcDbEntity
  8
Glass Top
 60
     1
100
AcDbCircle
 10
-45.5
 20
19.0
 30
15.0
 40
2.0
100
AcDbArc
 50
0.0000000000001018
 51
90.0
  0
LINE
  5
2C6
330
1F
100
AcDbEntity
  8
Glass Top
 60
     1
100
AcDbLine
 10
-45.5
 20
21.0
 30
14.625
 11
-83.5
 21
21.0
 31
14.625
  0
LINE
  5
2C7
330
1F
100
AcDbEntity
  8
Glass Top
 60
     1
100
AcDbLine
 10
-83.5
 20
21.0
 30
14.625
 11
-83.5
 21
21.0
 31
15.0
  0
LINE
  5
2C8
330
1F
100
AcDbEntity
  8
Glass Top
 60
     1
100
AcDbLine
 10
-45.5
 20
21.0
 30
15.0
 11
-83.5
 21
21.0
 31
15.0
  0
ARC
  5
2C9
330
1F
100
AcDbEntity
  8
Glass Top
 60
     1
100
AcDbCircle
 10
-83.50000000000003
 20
19.00000000000003
 30
14.625
 40
1.999999999999975
100
AcDbArc
 50
89.99999999999919
 51
180.0000000000007
  0
LINE
  5
2CA
330
1F
100
AcDbEntity
  8
Glass Top
 60
     1
100
AcDbLine
 10
-85.5
 20
19.0
 30
14.625
 11
-85.5
 21
19.0
 31
15.0
  0
ARC
  5
2CB
330
1F
100
AcDbEntity
  8
Glass Top
 60
     1
100
AcDbCircle
 10
-83.50000000000003
 20
19.00000000000003
 30
15.0
 40
1.999999999999975
100
AcDbArc
 50
89.99999999999919
 51
180.0000000000007
  0
LINE
  5
2CC
330
1F
100
AcDbEntity
  8
Glass Top
 60
     1
100
AcDbLine
 10
-85.5
 20
19.0
 30
14.625
 11
-85.5
 21
-19.0
 31
14.625
  0
LINE
  5
2CD
330
1F
100
AcDbEntity
  8
Glass Top
 60
     1
100
AcDbLine
 10
-85.5
 20
-19.0
 30
14.625
 11
-85.5
 21
-19.0
 31
15.0
  0
LINE
  5
2CE
330
1F
100
AcDbEntity
  8
Glass Top
 60
     1
100
AcDbLine
 10
-85.5
 20
19.0
 30
15.0
 11
-85.5
 21
-19.0
 31
15.0
  0
ARC
  5
2CF
330
1F
100
AcDbEntity
  8
Glass Top
 60
     1
100
AcDbCircle
 10
-83.50000000000001
 20
-19.00000000000001
 30
14.625
 40
1.999999999999986
100
AcDbArc
 50
179.9999999999995
 51
270.0000000000004
  0
ARC
  5
2D0
330
1F
100
AcDbEntity
  8
Glass Top
 60
     1
100
AcDbCircle
 10
-83.50000000000001
 20
-19.00000000000001
 30
15.0
 40
1.999999999999986
100
AcDbArc
 50
179.9999999999995
 51
270.0000000000004
  0
CIRCLE
  5
2D1
330
1F
100
AcDbEntity
  8
AL Base
 60
     1
100
AcDbCircle
 10
-79.25735931288072
 20
14.75735931288072
 30
14.625
 40
4.375
  0
CIRCLE
  5
2D2
330
1F
100
AcDbEntity
  8
Glass Leg
 60
     1
100
AcDbCircle
 10
-79.25735931288072
 20
14.75735931288072
 30
14.625
 40
4.5
  0
LINE
  5
2D3
330
1F
100
AcDbEntity
  8
Glass Leg
 60
     1
100
AcDbLine
 10
-74.75735931288072
 20
14.75735931288072
 30
14.625
 11
-74.75735931288072
 21
14.75735931288072
 31
0.0
  0
CIRCLE
  5
2D4
330
1F
100
AcDbEntity
  8
Glass Leg
 60
     1
100
AcDbCircle
 10
-79.25735931288072
 20
14.75735931288072
 30
0.0
 40
4.5
  0
CIRCLE
  5
2D5
330
1F
100
AcDbEntity
  8
Glass Leg
 60
     1
100
AcDbCircle
 10
-79.25735931288072
 20
14.75735931288071
 30
14.625
 40
4.375
  0
LINE
  5
2D6
330
1F
100
AcDbEntity
  8
Glass Leg
 60
     1
100
AcDbLine
 10
-74.88235931288072
 20
14.75735931288072
 30
14.625
 11
-74.88235931288072
 21
14.75735931288072
 31
0.0
  0
CIRCLE
  5
2D7
330
1F
100
AcDbEntity
  8
Glass Leg
 60
     1
100
AcDbCircle
 10
-79.25735931288072
 20
14.75735931288071
 30
0.0
 40
4.375
  0
LINE
  5
2D8
330
1F
100
AcDbEntity
  8
Glass Top
100
AcDbLine
 10
19.0
 20
-21.0
 30
14.675
 11
19.00000000000001
 21
-21.0
 31
14.95
  0
LINE
  5
2D9
330
1F
100
AcDbEntity
  8
Glass Top
100
AcDbLine
 10
-19.0
 20
-21.0
 30
14.675
 11
-18.99999999999998
 21
-21.0
 31
14.95
  0
ARC
  5
2DA
330
1F
100
AcDbEntity
  8
Glass Top
100
AcDbCircle
 10
19.00000000000001
 20
-19.00000000000001
 30
14.95
 40
1.999999999999986
100
AcDbArc
 50
270.0
 51
0.0000000000004071
  0
ARC
  5
2DB
330
1F
100
AcDbEntity
  8
Glass Top
100
AcDbCircle
 10
18.99999999999999
 20
-18.99999999999999
 30
14.675
 40
2.000000000000004
100
AcDbArc
 50
270.0000000000002
 51
359.9999999999999
  0
LINE
  5
2DC
330
1F
100
AcDbEntity
  8
Glass Top
100
AcDbLine
 10
21.0
 20
-19.0
 30
14.675
 11
21.0
 21
-19.0
 31
14.95
  0
LINE
  5
2DD
330
1F
100
AcDbEntity
  8
Glass Top
100
AcDbLine
 10
21.0
 20
19.00000000000001
 30
14.675
 11
21.0
 21
19.0
 31
14.95
  0
ARC
  5
2DE
330
1F
100
AcDbEntity
  8
Glass Top
100
AcDbCircle
 10
19.0
 20
19.00000000000001
 30
14.675
 40
2.0
100
AcDbArc
 50
0.0
 51
90.0
  0
ARC
  5
2DF
330
1F
100
AcDbEntity
  8
Glass Top
100
AcDbCircle
 10
19.0
 20
19.00000000000001
 30
14.94999999999999
 40
2.0
100
AcDbArc
 50
359.9999999999999
 51
90.0
  0
LINE
  5
2E0
330
1F
100
AcDbEntity
  8
Glass Top
100
AcDbLine
 10
19.0
 20
21.0
 30
14.675
 11
19.0
 21
21.0
 31
14.95
  0
LINE
  5
2E1
330
1F
100
AcDbEntity
  8
Glass Top
100
AcDbLine
 10
-18.99999999999998
 20
21.00000000000001
 30
14.675
 11
-18.99999999999998
 21
21.0
 31
14.95
  0
ARC
  5
2E2
330
1F
100
AcDbEntity
  8
Glass Top
100
AcDbCircle
 10
-18.99999999999994
 20
18.99999999999994
 30
14.94999999999999
 40
2.000000000000064
100
AcDbArc
 50
90.00000000000112
 51
179.9999999999976
  0
ARC
  5
2E3
330
1F
100
AcDbEntity
  8
Glass Top
100
AcDbCircle
 10
-18.99999999999992
 20
18.99999999999993
 30
14.67500000000002
 40
2.000000000000078
100
AcDbArc
 50
90.00000000000162
 51
179.9999999999971
  0
LINE
  5
2E4
330
1F
100
AcDbEntity
  8
Glass Top
100
AcDbLine
 10
-21.0
 20
19.00000000000003
 30
14.675
 11
-21.0
 21
19.00000000000002
 31
14.95
  0
LINE
  5
2E5
330
1F
100
AcDbEntity
  8
Glass Top
100
AcDbLine
 10
-21.0
 20
-19.0
 30
14.675
 11
-21.0
 21
-19.0
 31
14.95
  0
ARC
  5
2E6
330
1F
100
AcDbEntity
  8
Glass Top
100
AcDbCircle
 10
-19.0
 20
-19.0
 30
14.67500000000001
 40
2.0
100
AcDbArc
 50
180.0000000000001
 51
270.0
  0
ARC
  5
2E7
330
1F
100
AcDbEntity
  8
Glass Top
100
AcDbCircle
 10
-18.99999999999999
 20
-18.99999999999999
 30
14.95
 40
2.000000000000007
100
AcDbArc
 50
180.0000000000001
 51
270.0000000000003
  0
LINE
  5
2E8
330
1F
100
AcDbEntity
  8
Glass Top
100
AcDbLine
 10
-20.95000000000032
 20
19.00000000000005
 30
14.625
 11
-20.95000000000032
 21
-19.0
 31
14.625
  0
LINE
  5
2E9
330
1F
100
AcDbEntity
  8
Glass Top
100
AcDbLine
 10
20.95000000000033
 20
-19.0
 30
14.625
 11
20.95000000000033
 21
19.0
 31
14.625
  0
LINE
  5
2EA
330
1F
100
AcDbEntity
  8
Glass Top
100
AcDbLine
 10
19.0
 20
20.95000000000033
 30
14.625
 11
-18.99999999999995
 21
20.95000000000033
 31
14.625
  0
LINE
  5
2EB
330
1F
100
AcDbEntity
  8
Glass Top
100
AcDbLine
 10
-18.99999999999999
 20
-20.95000000000032
 30
14.625
 11
18.99999999999999
 21
-20.95000000000032
 31
14.625
  0
LINE
  5
2EC
330
1F
100
AcDbEntity
  8
Glass Top
100
AcDbLine
 10
-20.95000000000032
 20
19.00000000000004
 30
15.0
 11
-20.95000000000032
 21
-18.99999999999999
 31
15.0
  0
LINE
  5
2ED
330
1F
100
AcDbEntity
  8
Glass Top
100
AcDbLine
 10
20.95000000000033
 20
-19.0
 30
15.0
 11
20.95000000000033
 21
19.0
 31
15.0
  0
LINE
  5
2EE
330
1F
100
AcDbEntity
  8
Glass Top
100
AcDbLine
 10
19.0
 20
20.95000000000033
 30
15.0
 11
-18.99999999999996
 21
20.95000000000033
 31
15.0
  0
LINE
  5
2EF
330
1F
100
AcDbEntity
  8
Glass Top
100
AcDbLine
 10
-18.99999999999996
 20
-20.95000000000032
 30
15.0
 11
19.00000000000003
 21
-20.95000000000032
 31
15.0
  0
LINE
  5
2F0
330
1F
100
AcDbEntity
  8
Glass Top
100
AcDbLine
 10
-18.99999999999999
 20
-20.95000000000032
 30
14.625
 11
-19.0
 21
-21.0
 31
14.675
  0
LINE
  5
2F1
330
1F
100
AcDbEntity
  8
Glass Top
100
AcDbLine
 10
-19.0
 20
-21.0
 30
14.675
 11
19.0
 21
-21.0
 31
14.675
  0
LINE
  5
2F2
330
1F
100
AcDbEntity
  8
Glass Top
100
AcDbLine
 10
19.0
 20
-21.0
 30
14.675
 11
18.99999999999999
 21
-20.95000000000032
 31
14.625
  0
LINE
  5
2F3
330
1F
100
AcDbEntity
  8
Glass Top
100
AcDbLine
 10
19.00000000000001
 20
-21.0
 30
14.95
 11
19.00000000000003
 21
-20.95000000000032
 31
15.0
  0
LINE
  5
2F4
330
1F
100
AcDbEntity
  8
Glass Top
100
AcDbLine
 10
-18.99999999999998
 20
-21.0
 30
14.95
 11
19.00000000000001
 21
-21.0
 31
14.95
  0
SPLINE
  5
2F5
330
1F
100
AcDbEntity
  8
Glass Top
100
AcDbSpline
210
0.0
220
0.0
230
1.0
 70
     8
 71
     3
 72
     9
 73
     5
 74
     0
 42
0.000000001
 43
0.0000000001
 40
0.0000000000000004
 40
0.0000000000000004
 40
0.0000000000000004
 40
0.0000000000000004
 40
1.531487725208157
 40
3.062975450416209
 40
3.062975450416209
 40
3.062975450416209
 40
3.062975450416209
 10
18.99999999999999
 20
-20.95000000000032
 30
14.625
 10
19.51108354163792
 20
-20.95350137402848
 30
14.62500000000001
 10
20.52621259222941
 20
-20.52621259222936
 30
14.62499999999998
 10
20.95350137402849
 20
-19.51108354163789
 30
14.62500000000001
 10
20.95000000000033
 20
-19.0
 30
14.625
  0
SPLINE
  5
2F6
330
1F
100
AcDbEntity
  8
Glass Top
100
AcDbSpline
210
0.0
220
0.0
230
1.0
 70
     8
 71
     3
 72
     9
 73
     5
 74
     0
 42
0.000000001
 43
0.0000000001
 40
0.0000000000000003
 40
0.0000000000000003
 40
0.0000000000000003
 40
0.0000000000000003
 40
1.53148772520816
 40
3.06297545041621
 40
3.06297545041621
 40
3.06297545041621
 40
3.06297545041621
 10
19.00000000000003
 20
-20.95000000000032
 30
15.0
 10
19.51108354163797
 20
-20.95350137402849
 30
15.00000000000001
 10
20.52621259222945
 20
-20.52621259222938
 30
15.00000000000001
 10
20.95350137402849
 20
-19.51108354163789
 30
15.0
 10
20.95000000000033
 20
-19.0
 30
15.0
  0
LINE
  5
2F7
330
1F
100
AcDbEntity
  8
Glass Top
100
AcDbLine
 10
21.0
 20
-19.0
 30
14.95
 11
20.95000000000033
 21
-19.0
 31
15.0
  0
LINE
  5
2F8
330
1F
100
AcDbEntity
  8
Glass Top
100
AcDbLine
 10
20.95000000000033
 20
-19.0
 30
14.625
 11
21.0
 21
-19.0
 31
14.675
  0
LINE
  5
2F9
330
1F
100
AcDbEntity
  8
Glass Top
100
AcDbLine
 10
21.0
 20
-19.0
 30
14.675
 11
21.0
 21
19.00000000000001
 31
14.675
  0
LINE
  5
2FA
330
1F
100
AcDbEntity
  8
Glass Top
100
AcDbLine
 10
21.0
 20
-19.0
 30
14.95
 11
21.0
 21
19.0
 31
14.95
  0
LINE
  5
2FB
330
1F
100
AcDbEntity
  8
Glass Top
100
AcDbLine
 10
20.95000000000033
 20
19.0
 30
14.625
 11
21.0
 21
19.00000000000001
 31
14.675
  0
SPLINE
  5
2FC
330
1F
100
AcDbEntity
  8
Glass Top
100
AcDbSpline
210
0.0
220
0.0
230
1.0
 70
     8
 71
     3
 72
     9
 73
     5
 74
     0
 42
0.000000001
 43
0.0000000001
 40
0.0000000000000028
 40
0.0000000000000028
 40
0.0000000000000028
 40
0.0000000000000028
 40
1.531487725208045
 40
3.062975450416205
 40
3.062975450416205
 40
3.062975450416205
 40
3.062975450416205
 10
20.95000000000033
 20
19.0
 30
14.625
 10
20.9535013740285
 20
19.5110835416379
 30
14.62500000000001
 10
20.52621259222943
 20
20.5262125922294
 30
14.62500000000001
 10
19.51108354163793
 20
20.9535013740285
 30
14.62500000000001
 10
19.0
 20
20.95000000000033
 30
14.625
  0
LINE
  5
2FD
330
1F
100
AcDbEntity
  8
Glass Top
100
AcDbLine
 10
19.0
 20
21.0
 30
14.675
 11
19.0
 21
20.95000000000033
 31
14.625
  0
LINE
  5
2FE
330
1F
100
AcDbEntity
  8
Glass Top
100
AcDbLine
 10
20.95000000000033
 20
19.0
 30
15.0
 11
21.0
 21
19.0
 31
14.95
  0
SPLINE
  5
2FF
330
1F
100
AcDbEntity
  8
Glass Top
100
AcDbSpline
210
0.0
220
0.0
230
1.0
 70
     8
 71
     3
 72
     9
 73
     5
 74
     0
 42
0.000000001
 43
0.0000000001
 40
0.0
 40
0.0
 40
0.0
 40
0.0
 40
1.531487725208049
 40
3.062975450416209
 40
3.062975450416209
 40
3.062975450416209
 40
3.062975450416209
 10
20.95000000000033
 20
19.0
 30
15.0
 10
20.95350137402847
 20
19.51108354163787
 30
14.99999999999999
 10
20.52621259222941
 20
20.52621259222939
 30
14.99999999999999
 10
19.51108354163793
 20
20.95350137402849
 30
15.00000000000001
 10
19.0
 20
20.95000000000033
 30
15.0
  0
LINE
  5
300
330
1F
100
AcDbEntity
  8
Glass Top
100
AcDbLine
 10
19.0
 20
21.0
 30
14.95
 11
19.0
 21
20.95000000000033
 31
15.0
  0
LINE
  5
301
330
1F
100
AcDbEntity
  8
Glass Top
100
AcDbLine
 10
19.0
 20
21.0
 30
14.675
 11
-18.99999999999998
 21
21.00000000000001
 31
14.675
  0
LINE
  5
302
330
1F
100
AcDbEntity
  8
Glass Top
100
AcDbLine
 10
19.0
 20
21.0
 30
14.95
 11
-18.99999999999998
 21
21.0
 31
14.95
  0
LINE
  5
303
330
1F
100
AcDbEntity
  8
Glass Top
100
AcDbLine
 10
-18.99999999999998
 20
21.0
 30
14.95
 11
-18.99999999999996
 21
20.95000000000033
 31
15.0
  0
LINE
  5
304
330
1F
100
AcDbEntity
  8
Glass Top
100
AcDbLine
 10
-18.99999999999995
 20
20.95000000000033
 30
14.625
 11
-18.99999999999998
 21
21.00000000000001
 31
14.675
  0
SPLINE
  5
305
330
1F
100
AcDbEntity
  8
Glass Top
100
AcDbSpline
210
0.0
220
0.0
230
1.0
 70
     8
 71
     3
 72
     9
 73
     5
 74
     0
 42
0.000000001
 43
0.0000000001
 40
-0.0000000000000738
 40
-0.0000000000000738
 40
-0.0000000000000738
 40
-0.0000000000000738
 40
1.531487725208119
 40
3.062975450416132
 40
3.062975450416132
 40
3.062975450416132
 40
3.062975450416132
 10
-18.99999999999995
 20
20.95000000000033
 30
14.625
 10
-19.51108354163789
 20
20.95350137402852
 30
14.62500000000001
 10
-20.5262125922294
 20
20.52621259222945
 30
14.625
 10
-20.95350137402847
 20
19.51108354163793
 30
14.625
 10
-20.95000000000032
 20
19.00000000000005
 30
14.625
  0
SPLINE
  5
306
330
1F
100
AcDbEntity
  8
Glass Top
100
AcDbSpline
210
0.0
220
0.0
230
1.0
 70
     8
 71
     3
 72
     9
 73
     5
 74
     0
 42
0.000000001
 43
0.0000000001
 40
-0.000000000000072
 40
-0.000000000000072
 40
-0.000000000000072
 40
-0.000000000000072
 40
1.531487725208172
 40
3.062975450416126
 40
3.062975450416126
 40
3.062975450416126
 40
3.062975450416126
 10
-18.99999999999996
 20
20.95000000000033
 30
15.0
 10
-19.51108354163792
 20
20.95350137402852
 30
15.00000000000001
 10
-20.5262125922294
 20
20.52621259222941
 30
14.99999999999999
 10
-20.95350137402846
 20
19.51108354163789
 30
15.0
 10
-20.95000000000032
 20
19.00000000000004
 30
15.0
  0
LINE
  5
307
330
1F
100
AcDbEntity
  8
Glass Top
100
AcDbLine
 10
-20.95000000000032
 20
19.00000000000005
 30
14.625
 11
-21.0
 21
19.00000000000003
 31
14.675
  0
LINE
  5
308
330
1F
100
AcDbEntity
  8
Glass Top
100
AcDbLine
 10
-21.0
 20
19.00000000000003
 30
14.675
 11
-21.0
 21
-19.0
 31
14.675
  0
LINE
  5
309
330
1F
100
AcDbEntity
  8
Glass Top
100
AcDbLine
 10
-21.0
 20
-19.0
 30
14.675
 11
-20.95000000000032
 21
-19.0
 31
14.625
  0
LINE
  5
30A
330
1F
100
AcDbEntity
  8
Glass Top
100
AcDbLine
 10
-20.95000000000032
 20
19.00000000000004
 30
15.0
 11
-21.0
 21
19.00000000000002
 31
14.95
  0
LINE
  5
30B
330
1F
100
AcDbEntity
  8
Glass Top
100
AcDbLine
 10
-21.0
 20
19.00000000000002
 30
14.95
 11
-21.0
 21
-19.0
 31
14.95
  0
LINE
  5
30C
330
1F
100
AcDbEntity
  8
Glass Top
100
AcDbLine
 10
-21.0
 20
-19.0
 30
14.95
 11
-20.95000000000032
 21
-18.99999999999999
 31
15.0
  0
SPLINE
  5
30D
330
1F
100
AcDbEntity
  8
Glass Top
100
AcDbSpline
210
0.0
220
0.0
230
1.0
 70
     8
 71
     3
 72
     9
 73
     5
 74
     0
 42
0.000000001
 43
0.0000000001
 40
0.0000000000000001
 40
0.0000000000000001
 40
0.0000000000000001
 40
0.0000000000000001
 40
1.531487725208044
 40
3.062975450416206
 40
3.062975450416206
 40
3.062975450416206
 40
3.062975450416206
 10
-20.95000000000032
 20
-19.0
 30
14.625
 10
-20.9535013740285
 20
-19.51108354163791
 30
14.62500000000001
 10
-20.52621259222946
 20
-20.52621259222944
 30
14.62500000000002
 10
-19.51108354163793
 20
-20.9535013740285
 30
14.62500000000001
 10
-18.99999999999999
 20
-20.95000000000032
 30
14.625
  0
LINE
  5
30E
330
1F
100
AcDbEntity
  8
Glass Top
100
AcDbLine
 10
-18.99999999999998
 20
-21.0
 30
14.95
 11
-18.99999999999996
 21
-20.95000000000032
 31
15.0
  0
SPLINE
  5
30F
330
1F
100
AcDbEntity
  8
Glass Top
100
AcDbSpline
210
0.0
220
0.0
230
1.0
 70
     8
 71
     3
 72
     9
 73
     5
 74
     0
 42
0.000000001
 43
0.0000000001
 40
-0.0000000000000001
 40
-0.0000000000000001
 40
-0.0000000000000001
 40
-0.0000000000000001
 40
1.531487725208044
 40
3.062975450416207
 40
3.062975450416207
 40
3.062975450416207
 40
3.062975450416207
 10
-20.95000000000032
 20
-18.99999999999999
 30
15.0
 10
-20.95350137402848
 20
-19.51108354163787
 30
14.99999999999999
 10
-20.52621259222943
 20
-20.5262125922294
 30
15.0
 10
-19.51108354163791
 20
-20.95350137402849
 30
15.00000000000002
 10
-18.99999999999996
 20
-20.95000000000032
 30
15.0
  0
LINE
  5
310
330
1F
100
AcDbEntity
  8
Glass Top
100
AcDbLine
 10
-19.0
 20
-21.0
 30
14.8125
 11
19.0
 21
-21.0
 31
14.8125
  0
LINE
  5
311
330
1F
100
AcDbEntity
  8
Glass Top
100
AcDbLine
 10
0.0
 20
-21.0
 30
14.675
 11
0.0
 21
-21.0
 31
14.95
  0
ARC
  5
312
330
1F
100
AcDbEntity
  8
Glass Top
100
AcDbCircle
 10
19.00000000000001
 20
-19.00000000000001
 30
14.8125
 40
1.999999999999989
100
AcDbArc
 50
269.9999999999998
 51
0.0000000000003053
  0
LINE
  5
313
330
1F
100
AcDbEntity
  8
Glass Top
100
AcDbLine
 10
20.41421356237314
 20
-20.41421356237305
 30
14.675
 11
20.41421356237314
 21
-20.41421356237305
 31
14.95
  0
LINE
  5
314
330
1F
100
AcDbEntity
  8
Glass Top
100
AcDbLine
 10
21.0
 20
-19.0
 30
14.8125
 11
21.0
 21
19.0
 31
14.8125
  0
LINE
  5
315
330
1F
100
AcDbEntity
  8
Glass Top
100
AcDbLine
 10
21.0
 20
0.0000000000000036
 30
14.675
 11
21.0
 21
0.0000000000000036
 31
14.95
  0
ARC
  5
316
330
1F
100
AcDbEntity
  8
Glass Top
100
AcDbCircle
 10
19.00000000000001
 20
19.00000000000001
 30
14.8125
 40
1.999999999999993
100
AcDbArc
 50
359.9999999999997
 51
90.0000000000002
  0
LINE
  5
317
330
1F
100
AcDbEntity
  8
Glass Top
100
AcDbLine
 10
20.41421356237314
 20
20.41421356237306
 30
14.675
 11
20.41421356237314
 21
20.41421356237306
 31
14.95
  0
LINE
  5
318
330
1F
100
AcDbEntity
  8
Glass Top
100
AcDbLine
 10
19.0
 20
21.0
 30
14.8125
 11
-19.0
 21
21.0
 31
14.8125
  0
LINE
  5
319
330
1F
100
AcDbEntity
  8
Glass Top
100
AcDbLine
 10
0.0
 20
21.0
 30
14.675
 11
0.0
 21
21.0
 31
14.95
  0
ARC
  5
31A
330
1F
100
AcDbEntity
  8
Glass Top
100
AcDbCircle
 10
-19.0
 20
19.00000000000001
 30
14.81249999999999
 40
1.999999999999993
100
AcDbArc
 50
90.0
 51
179.9999999999975
  0
LINE
  5
31B
330
1F
100
AcDbEntity
  8
Glass Top
100
AcDbLine
 10
-20.41421356237314
 20
20.41421356237306
 30
14.675
 11
-20.41421356237314
 21
20.41421356237306
 31
14.95
  0
LINE
  5
31C
330
1F
100
AcDbEntity
  8
Glass Top
100
AcDbLine
 10
-21.0
 20
19.0
 30
14.8125
 11
-21.0
 21
-19.0
 31
14.8125
  0
LINE
  5
31D
330
1F
100
AcDbEntity
  8
Glass Top
100
AcDbLine
 10
-21.0
 20
0.0000000000000036
 30
14.675
 11
-21.0
 21
0.0000000000000036
 31
14.95
  0
ARC
  5
31E
330
1F
100
AcDbEntity
  8
Glass Top
100
AcDbCircle
 10
-19.00000000000001
 20
-19.00000000000001
 30
14.8125
 40
1.999999999999993
100
AcDbArc
 50
179.9999999999997
 51
270.0000000000002
  0
LINE
  5
31F
330
1F
100
AcDbEntity
  8
Glass Top
100
AcDbLine
 10
-20.41421356237314
 20
-20.41421356237305
 30
14.675
 11
-20.41421356237314
 21
-20.41421356237305
 31
14.95
  0
LINE
  5
320
330
1F
100
AcDbEntity
  8
Glass Top
100
AcDbLine
 10
-20.95000000000008
 20
0.0000000000000071
 30
14.625
 11
20.95000000000006
 21
0.0000000000000071
 31
14.625
  0
LINE
  5
321
330
1F
100
AcDbEntity
  8
Glass Top
100
AcDbLine
 10
0.0
 20
-20.95000000000008
 30
14.625
 11
0.0
 21
20.9500000000001
 31
14.625
  0
LINE
  5
322
330
1F
100
AcDbEntity
  8
Glass Top
100
AcDbLine
 10
-20.95000000000008
 20
0.0000000000000071
 30
15.0
 11
20.95000000000007
 21
0.0000000000000071
 31
15.0
  0
LINE
  5
323
330
1F
100
AcDbEntity
  8
Glass Top
100
AcDbLine
 10
0.0
 20
-20.95000000000007
 30
15.0
 11
0.0
 21
20.95000000000008
 31
15.0
  0
LINE
  5
324
330
1F
100
AcDbEntity
  8
Glass Top
100
AcDbLine
 10
-18.99999999999999
 20
-20.97499999999999
 30
14.65
 11
18.99999999999999
 21
-20.97499999999999
 31
14.65
  0
LINE
  5
325
330
1F
100
AcDbEntity
  8
Glass Top
100
AcDbLine
 10
0.0000000000000018
 20
-21.0
 30
14.675
 11
-0.0000000000000018
 21
-20.95
 31
14.625
  0
LINE
  5
326
330
1F
100
AcDbEntity
  8
Glass Top
100
AcDbLine
 10
-18.99999999999994
 20
-20.97499999999999
 30
14.975
 11
19.00000000000006
 21
-20.97499999999999
 31
14.975
  0
LINE
  5
327
330
1F
100
AcDbEntity
  8
Glass Top
100
AcDbLine
 10
0.0000000000000586
 20
-21.0
 30
14.95
 11
0.0000000000000622
 21
-20.94999999999999
 31
15.0
  0
SPLINE
  5
328
330
1F
100
AcDbEntity
  8
Glass Top
100
AcDbSpline
210
0.0
220
0.0
230
1.0
 70
     8
 71
     3
 72
     9
 73
     5
 74
     0
 42
0.000000001
 43
0.0000000001
 40
0.0
 40
0.0
 40
0.0
 40
0.0
 40
1.531487725208157
 40
3.062975450416209
 40
3.062975450416209
 40
3.062975450416209
 40
3.062975450416209
 10
19.0
 20
-20.97500000000032
 30
14.65
 10
19.51763589486126
 20
-20.97854626333302
 30
14.65000000000001
 10
20.54577942031095
 20
-20.5457794203109
 30
14.64999999999998
 10
20.97854626333301
 20
-19.51763589486122
 30
14.65000000000001
 10
20.97500000000033
 20
-19.0
 30
14.65
  0
LINE
  5
329
330
1F
100
AcDbEntity
  8
Glass Top
100
AcDbLine
 10
20.41461797437664
 20
-20.41461797437655
 30
14.67499999999999
 11
20.3792525250315
 21
-20.3792525250314
 31
14.62499999999999
  0
SPLINE
  5
32A
330
1F
100
AcDbEntity
  8
Glass Top
100
AcDbSpline
210
0.0
220
0.0
230
1.0
 70
     8
 71
     3
 72
     9
 73
     5
 74
     0
 42
0.000000001
 43
0.0000000001
 40
0.0
 40
0.0
 40
0.0
 40
0.0
 40
1.53148772520816
 40
3.06297545041621
 40
3.06297545041621
 40
3.06297545041621
 40
3.06297545041621
 10
19.0
 20
-20.97500000000032
 30
14.975
 10
19.51763589486128
 20
-20.97854626333303
 30
14.97500000000002
 10
20.54577942031097
 20
-20.54577942031093
 30
14.97499999999999
 10
20.97854626333302
 20
-19.51763589486123
 30
14.975
 10
20.97500000000033
 20
-19.0
 30
14.975
  0
LINE
  5
32B
330
1F
100
AcDbEntity
  8
Glass Top
100
AcDbLine
 10
20.41461797437666
 20
-20.41461797437658
 30
14.95
 11
20.37925252503152
 21
-20.37925252503143
 31
15.00000000000001
  0
LINE
  5
32C
330
1F
100
AcDbEntity
  8
Glass Top
100
AcDbLine
 10
20.975
 20
-19.0
 30
14.65
 11
20.975
 21
19.0
 31
14.65
  0
LINE
  5
32D
330
1F
100
AcDbEntity
  8
Glass Top
100
AcDbLine
 10
21.0
 20
0.0000000000000018
 30
14.675
 11
20.95
 21
-0.0000000000000036
 31
14.625
  0
LINE
  5
32E
330
1F
100
AcDbEntity
  8
Glass Top
100
AcDbLine
 10
20.975
 20
-19.0
 30
14.975
 11
20.975
 21
19.0
 31
14.975
  0
LINE
  5
32F
330
1F
100
AcDbEntity
  8
Glass Top
100
AcDbLine
 10
21.0
 20
0.0000000000000036
 30
14.95
 11
20.95
 21
0.0
 31
15.0
  0
SPLINE
  5
330
330
1F
100
AcDbEntity
  8
Glass Top
100
AcDbSpline
210
0.0
220
0.0
230
1.0
 70
     8
 71
     3
 72
     9
 73
     5
 74
     0
 42
0.000000001
 43
0.0000000001
 40
0.0
 40
0.0
 40
0.0
 40
0.0
 40
1.531487725208043
 40
3.062975450416205
 40
3.062975450416205
 40
3.062975450416205
 40
3.062975450416205
 10
20.97500000000033
 20
19.00000000000001
 30
14.65
 10
20.97854626333303
 20
19.51763589486124
 30
14.65000000000001
 10
20.54577942031098
 20
20.54577942031096
 30
14.65
 10
19.51763589486127
 20
20.97854626333304
 30
14.65000000000001
 10
19.0
 20
20.97500000000033
 30
14.65
  0
LINE
  5
331
330
1F
100
AcDbEntity
  8
Glass Top
100
AcDbLine
 10
20.41461797437666
 20
20.4146179743766
 30
14.675
 11
20.37925252503151
 21
20.37925252503143
 31
14.62500000000001
  0
SPLINE
  5
332
330
1F
100
AcDbEntity
  8
Glass Top
100
AcDbSpline
210
0.0
220
0.0
230
1.0
 70
     8
 71
     3
 72
     9
 73
     5
 74
     0
 42
0.000000001
 43
0.0000000001
 40
0.0
 40
0.0
 40
0.0
 40
0.0
 40
1.531487725208049
 40
3.062975450416209
 40
3.062975450416209
 40
3.062975450416209
 40
3.062975450416209
 10
20.97500000000033
 20
19.0
 30
14.975
 10
20.978546263333
 20
19.51763589486121
 30
14.97499999999999
 10
20.54577942031096
 20
20.54577942031094
 30
14.975
 10
19.51763589486126
 20
20.97854626333302
 30
14.97500000000001
 10
19.0
 20
20.97500000000033
 30
14.975
  0
LINE
  5
333
330
1F
100
AcDbEntity
  8
Glass Top
100
AcDbLine
 10
20.41461797437665
 20
20.41461797437658
 30
14.95
 11
20.37925252503149
 21
20.37925252503142
 31
15.0
  0
LINE
  5
334
330
1F
100
AcDbEntity
  8
Glass Top
100
AcDbLine
 10
19.0
 20
20.975
 30
14.65
 11
-18.99999999999999
 21
20.975
 31
14.65
  0
LINE
  5
335
330
1F
100
AcDbEntity
  8
Glass Top
100
AcDbLine
 10
0.0000000000000036
 20
21.0
 30
14.675
 11
0.0000000000000053
 21
20.95
 31
14.625
  0
LINE
  5
336
330
1F
100
AcDbEntity
  8
Glass Top
100
AcDbLine
 10
19.0
 20
20.975
 30
14.975
 11
-18.99999999999999
 21
20.975
 31
14.975
  0
LINE
  5
337
330
1F
100
AcDbEntity
  8
Glass Top
100
AcDbLine
 10
-0.0000000000000018
 20
21.0
 30
14.95
 11
0.0000000000000053
 21
20.95
 31
15.0
  0
SPLINE
  5
338
330
1F
100
AcDbEntity
  8
Glass Top
100
AcDbSpline
210
0.0
220
0.0
230
1.0
 70
     8
 71
     3
 72
     9
 73
     5
 74
     0
 42
0.000000001
 43
0.0000000001
 40
-0.0000000000000818
 40
-0.0000000000000818
 40
-0.0000000000000818
 40
-0.0000000000000818
 40
1.531487725208114
 40
3.06297545041613
 40
3.06297545041613
 40
3.06297545041613
 40
3.06297545041613
 10
-18.99999999999991
 20
20.97500000000034
 30
14.65
 10
-19.51763589486119
 20
20.97854626333306
 30
14.65000000000001
 10
-20.54577942031093
 20
20.54577942031101
 30
14.65
 10
-20.97854626333299
 20
19.5176358948613
 30
14.65000000000001
 10
-20.97500000000033
 20
19.00000000000008
 30
14.65
  0
LINE
  5
339
330
1F
100
AcDbEntity
  8
Glass Top
100
AcDbLine
 10
-20.41461797437663
 20
20.41461797437663
 30
14.67500000000001
 11
-20.37925252503148
 21
20.37925252503148
 31
14.625
  0
SPLINE
  5
33A
330
1F
100
AcDbEntity
  8
Glass Top
100
AcDbSpline
210
0.0
220
0.0
230
1.0
 70
     8
 71
     3
 72
     9
 73
     5
 74
     0
 42
0.000000001
 43
0.0000000001
 40
-0.0000000000000766
 40
-0.0000000000000766
 40
-0.0000000000000766
 40
-0.0000000000000766
 40
1.531487725208172
 40
3.062975450416129
 40
3.062975450416129
 40
3.062975450416129
 40
3.062975450416129
 10
-18.99999999999992
 20
20.97500000000033
 30
14.975
 10
-19.51763589486124
 20
20.97854626333306
 30
14.97500000000001
 10
-20.54577942031093
 20
20.54577942031096
 30
14.97499999999999
 10
-20.97854626333299
 20
19.51763589486127
 30
14.975
 10
-20.97500000000033
 20
19.00000000000008
 30
14.975
  0
LINE
  5
33B
330
1F
100
AcDbEntity
  8
Glass Top
100
AcDbLine
 10
-20.41461797437667
 20
20.41461797437657
 30
14.95
 11
-20.37925252503152
 21
20.37925252503143
 31
15.0
  0
LINE
  5
33C
330
1F
100
AcDbEntity
  8
Glass Top
100
AcDbLine
 10
-20.975
 20
19.00000000000001
 30
14.65
 11
-20.975
 21
-19.00000000000001
 31
14.65
  0
LINE
  5
33D
330
1F
100
AcDbEntity
  8
Glass Top
100
AcDbLine
 10
-21.0
 20
0.0000000000000036
 30
14.675
 11
-20.95
 21
0.0000000000000053
 31
14.625
  0
LINE
  5
33E
330
1F
100
AcDbEntity
  8
Glass Top
100
AcDbLine
 10
-20.97499999999999
 20
19.0
 30
14.975
 11
-20.975
 21
-18.99999999999999
 31
14.975
  0
LINE
  5
33F
330
1F
100
AcDbEntity
  8
Glass Top
100
AcDbLine
 10
-21.0
 20
0.0000000000000036
 30
14.95
 11
-20.95
 21
0.0000000000000071
 31
15.0
  0
SPLINE
  5
340
330
1F
100
AcDbEntity
  8
Glass Top
100
AcDbSpline
210
0.0
220
0.0
230
1.0
 70
     8
 71
     3
 72
     9
 73
     5
 74
     0
 42
0.000000001
 43
0.0000000001
 40
0.0
 40
0.0
 40
0.0
 40
0.0
 40
1.531487725208044
 40
3.062975450416206
 40
3.062975450416206
 40
3.062975450416206
 40
3.062975450416206
 10
-20.97500000000032
 20
-18.99999999999999
 30
14.65
 10
-20.97854626333303
 20
-19.51763589486124
 30
14.65000000000001
 10
-20.54577942031102
 20
-20.54577942031098
 30
14.65000000000003
 10
-19.51763589486127
 20
-20.97854626333302
 30
14.65000000000001
 10
-19.0
 20
-20.97500000000032
 30
14.65
  0
LINE
  5
341
330
1F
100
AcDbEntity
  8
Glass Top
100
AcDbLine
 10
-20.4146179743767
 20
-20.4146179743766
 30
14.67500000000002
 11
-20.37925252503154
 21
-20.37925252503146
 31
14.62500000000002
  0
SPLINE
  5
342
330
1F
100
AcDbEntity
  8
Glass Top
100
AcDbSpline
210
0.0
220
0.0
230
1.0
 70
     8
 71
     3
 72
     9
 73
     5
 74
     0
 42
0.000000001
 43
0.0000000001
 40
0.0
 40
0.0
 40
0.0
 40
0.0
 40
1.531487725208044
 40
3.062975450416207
 40
3.062975450416207
 40
3.062975450416207
 40
3.062975450416207
 10
-20.97500000000032
 20
-19.0
 30
14.975
 10
-20.97854626333301
 20
-19.51763589486121
 30
14.97499999999999
 10
-20.54577942031099
 20
-20.54577942031095
 30
14.975
 10
-19.51763589486128
 20
-20.97854626333303
 30
14.97500000000002
 10
-19.0
 20
-20.97500000000032
 30
14.975
  0
LINE
  5
343
330
1F
100
AcDbEntity
  8
Glass Top
100
AcDbLine
 10
-20.41461797437667
 20
-20.41461797437658
 30
14.95
 11
-20.37925252503153
 21
-20.37925252503143
 31
15.00000000000001
  0
ENDSEC
  0
SECTION
  2
OBJECTS
  0
DICTIONARY
  5
C
330
0
100
AcDbDictionary
281
     1
  3
ACAD_DETAILVIEWSTYLE
350
37F
  3
ACAD_GROUP
350
D
  3
ACAD_LAYOUT
350
1A
  3
ACAD_MATERIAL
350
43
  3
ACAD_MLEADERSTYLE
350
37E
  3
ACAD_MLINESTYLE
350
17
  3
ACAD_PLOTSETTINGS
350
19
  3
ACAD_PLOTSTYLENAME
350
E
  3
ACAD_SCALELIST
350
47
  3
ACAD_SECTIONVIEWSTYLE
350
380
  3
ACAD_TABLESTYLE
350
37D
  3
ACAD_VISUALSTYLE
350
2A
  3
AcDbVariableDictionary
350
344
  0
DICTIONARY
  5
37F
102
{ACAD_REACTORS
330
C
102
}
330
C
100
AcDbDictionary
281
     1
  0
DICTIONARY
  5
D
102
{ACAD_REACTORS
330
C
102
}
330
C
100
AcDbDictionary
281
     1
  0
DICTIONARY
  5
1A
102
{ACAD_REACTORS
330
C
102
}
330
C
100
AcDbDictionary
281
     1
  3
Layout1
350
1E
  3
Layout2
350
26
  3
Model
350
22
  0
DICTIONARY
  5
43
102
{ACAD_REACTORS
330
C
102
}
330
C
100
AcDbDictionary
281
     1
  3
ByBlock
350
45
  3
ByLayer
350
44
  3
Global
350
46
  0
DICTIONARY
  5
37E
102
{ACAD_REACTORS
330
C
102
}
330
C
100
AcDbDictionary
281
     1
  0
DICTIONARY
  5
17
102
{ACAD_REACTORS
330
C
102
}
330
C
100
AcDbDictionary
281
     1
  3
Standard
350
18
  0
DICTIONARY
  5
19
102
{ACAD_REACTORS
330
C
102
}
330
C
100
AcDbDictionary
281
     1
  0
ACDBDICTIONARYWDFLT
  5
E
102
{ACAD_REACTORS
330
C
102
}
330
C
100
AcDbDictionary
281
     1
  3
Normal
350
F
100
AcDbDictionaryWithDefault
340
F
  0
DICTIONARY
  5
47
102
{ACAD_REACTORS
330
C
102
}
330
C
100
AcDbDictionary
281
     1
  3
A0
350
48
  3
A1
350
49
  3
A2
350
4A
  3
A3
350
4B
  3
A4
350
4C
  3
A5
350
4D
  3
A6
350
4E
  3
A7
350
4F
  3
A8
350
50
  3
A9
350
51
  3
B0
350
52
  3
B1
350
53
  3
B2
350
54
  3
B3
350
55
  3
B4
350
56
  3
B5
350
57
  3
B6
350
58
  3
B7
350
59
  3
B8
350
5A
  3
B9
350
5B
  3
C0
350
5C
  3
C1
350
5D
  3
C2
350
5E
  3
C3
350
5F
  3
C4
350
60
  3
C5
350
61
  3
C6
350
62
  3
C7
350
63
  3
C8
350
64
  3
C9
350
65
  3
D0
350
66
  3
D1
350
67
  3
D2
350
68
  0
DICTIONARY
  5
380
102
{ACAD_REACTORS
330
C
102
}
330
C
100
AcDbDictionary
281
     1
  0
DICTIONARY
  5
37D
102
{ACAD_REACTORS
330
C
102
}
330
C
100
AcDbDictionary
281
     1
  0
DICTIONARY
  5
2A
102
{ACAD_REACTORS
330
C
102
}
330
C
100
AcDbDictionary
281
     1
  3
2dWireframe
350
2F
  3
Basic
350
32
  3
Brighten
350
36
  3
ColorChange
350
3A
  3
Conceptual
350
34
  3
Dim
350
35
  3
EdgeColorOff
350
3D
  3
Facepattern
350
39
  3
Flat
350
2B
  3
FlatWithEdges
350
2C
  3
Gouraud
350
2D
  3
GouraudWithEdges
350
2E
  3
Hidden
350
31
  3
JitterOff
350
3B
  3
Linepattern
350
38
  3
OverhangOff
350
3C
  3
Realistic
350
33
  3
Shaded
350
42
  3
Shaded with edges
350
41
  3
Shades of Gray
350
3E
  3
Sketchy
350
3F
  3
Thicken
350
37
  3
Wireframe
350
30
  3
X-Ray
350
40
  0
DICTIONARY
  5
344
102
{ACAD_REACTORS
330
C
102
}
330
C
100
AcDbDictionary
281
     1
  3
CANNOSCALE
350
345
  3
MSLTSCALE
350
346
  0
LAYOUT
  5
1E
102
{ACAD_REACTORS
330
1A
102
}
330
1A
100
AcDbPlotSettings
  1

  2
none_device
  4

  6

 40
0.0
 41
0.0
 42
0.0
 43
0.0
 44
0.0
 45
0.0
 46
0.0
 47
0.0
 48
0.0
 49
0.0
140
0.0
141
0.0
142
1.0
143
1.0
 70
   688
 72
     0
 73
     0
 74
     5
  7

 75
    16
 76
     0
 77
     2
 78
   300
147
1.0
148
0.0
149
0.0
100
AcDbLayout
  1
Layout1
 70
     1
 71
     1
 10
0.0
 20
0.0
 11
12.0
 21
9.0
 12
0.0
 22
0.0
 32
0.0
 14
1.000000000000000E+20
 24
1.000000000000000E+20
 34
1.000000000000000E+20
 15
-1.000000000000000E+20
 25
-1.000000000000000E+20
 35
-1.000000000000000E+20
146
0.0
 13
0.0
 23
0.0
 33
0.0
 16
1.0
 26
0.0
 36
0.0
 17
0.0
 27
1.0
 37
0.0
 76
     0
330
1B
  0
LAYOUT
  5
26
102
{ACAD_REACTORS
330
1A
102
}
330
1A
100
AcDbPlotSettings
  1

  2
none_device
  4

  6

 40
0.0
 41
0.0
 42
0.0
 43
0.0
 44
0.0
 45
0.0
 46
0.0
 47
0.0
 48
0.0
 49
0.0
140
0.0
141
0.0
142
1.0
143
1.0
 70
   688
 72
     0
 73
     0
 74
     5
  7

 75
    16
 76
     0
 77
     2
 78
   300
147
1.0
148
0.0
149
0.0
100
AcDbLayout
  1
Layout2
 70
     1
 71
     2
 10
0.0
 20
0.0
 11
0.0
 21
0.0
 12
0.0
 22
0.0
 32
0.0
 14
0.0
 24
0.0
 34
0.0
 15
0.0
 25
0.0
 35
0.0
146
0.0
 13
0.0
 23
0.0
 33
0.0
 16
1.0
 26
0.0
 36
0.0
 17
0.0
 27
1.0
 37
0.0
 76
     0
330
23
  0
LAYOUT
  5
22
102
{ACAD_REACTORS
330
1A
102
}
330
1A
100
AcDbPlotSettings
  1

  2
none_device
  4
Letter_(8.50_x_11.00_Inches)
  6

 40
6.35
 41
6.35
 42
6.35000508
 43
6.35000508
 44
215.9
 45
279.4
 46
0.0
 47
0.0
 48
0.0
 49
0.0
140
0.0
141
0.0
142
1.0
143
1.0
 70
  1712
 72
     0
 73
     0
 74
     0
  7

 75
     0
 76
     0
 77
     2
 78
   300
147
1.0
148
0.0
149
0.0
100
AcDbLayout
  1
Model
 70
     1
 71
     0
 10
0.0
 20
0.0
 11
12.0
 21
9.0
 12
0.0
 22
0.0
 32
0.0
 14
-85.5
 24
-21.0
 34
0.0
 15
131.7074275274956
 25
109.9574275274956
 35
15.00000000000002
146
0.0
 13
0.0
 23
0.0
 33
0.0
 16
1.0
 26
0.0
 36
0.0
 17
0.0
 27
1.0
 37
0.0
 76
     0
330
1F
331
29
  0
MATERIAL
  5
45
102
{ACAD_REACTORS
330
43
102
}
102
{ACAD_XDICTIONARY
360
379
102
}
330
43
100
AcDbMaterial
  1
ByBlock
  0
MATERIAL
  5
44
102
{ACAD_REACTORS
330
43
102
}
102
{ACAD_XDICTIONARY
360
377
102
}
330
43
100
AcDbMaterial
  1
ByLayer
  0
MATERIAL
  5
46
102
{ACAD_REACTORS
330
43
102
}
102
{ACAD_XDICTIONARY
360
37B
102
}
330
43
100
AcDbMaterial
  1
Global
  0
MLINESTYLE
  5
18
102
{ACAD_REACTORS
330
17
102
}
330
17
100
AcDbMlineStyle
  2
Standard
 70
     0
  3

 62
   256
 51
90.0
 52
90.0
 71
     2
 49
0.5
 62
   256
  6
BYLAYER
 49
-0.5
 62
   256
  6
BYLAYER
  0
ACDBPLACEHOLDER
  5
F
102
{ACAD_REACTORS
330
E
102
}
330
E
  0
SCALE
  5
48
102
{ACAD_REACTORS
330
47
102
}
330
47
100
AcDbScale
 70
     0
300
1:1
140
1.0
141
1.0
290
     1
  0
SCALE
  5
49
102
{ACAD_REACTORS
330
47
102
}
330
47
100
AcDbScale
 70
     0
300
1:2
140
1.0
141
2.0
290
     0
  0
SCALE
  5
4A
102
{ACAD_REACTORS
330
47
102
}
330
47
100
AcDbScale
 70
     0
300
1:4
140
1.0
141
4.0
290
     0
  0
SCALE
  5
4B
102
{ACAD_REACTORS
330
47
102
}
330
47
100
AcDbScale
 70
     0
300
1:5
140
1.0
141
5.0
290
     0
  0
SCALE
  5
4C
102
{ACAD_REACTORS
330
47
102
}
330
47
100
AcDbScale
 70
     0
300
1:8
140
1.0
141
8.0
290
     0
  0
SCALE
  5
4D
102
{ACAD_REACTORS
330
47
102
}
330
47
100
AcDbScale
 70
     0
300
1:10
140
1.0
141
10.0
290
     0
  0
SCALE
  5
4E
102
{ACAD_REACTORS
330
47
102
}
330
47
100
AcDbScale
 70
     0
300
1:16
140
1.0
141
16.0
290
     0
  0
SCALE
  5
4F
102
{ACAD_REACTORS
330
47
102
}
330
47
100
AcDbScale
 70
     0
300
1:20
140
1.0
141
20.0
290
     0
  0
SCALE
  5
50
102
{ACAD_REACTORS
330
47
102
}
330
47
100
AcDbScale
 70
     0
300
1:30
140
1.0
141
30.0
290
     0
  0
SCALE
  5
51
102
{ACAD_REACTORS
330
47
102
}
330
47
100
AcDbScale
 70
     0
300
1:40
140
1.0
141
40.0
290
     0
  0
SCALE
  5
52
102
{ACAD_REACTORS
330
47
102
}
330
47
100
AcDbScale
 70
     0
300
1:50
140
1.0
141
50.0
290
     0
  0
SCALE
  5
53
102
{ACAD_REACTORS
330
47
102
}
330
47
100
AcDbScale
 70
     0
300
1:100
140
1.0
141
100.0
290
     0
  0
SCALE
  5
54
102
{ACAD_REACTORS
330
47
102
}
330
47
100
AcDbScale
 70
     0
300
2:1
140
2.0
141
1.0
290
     0
  0
SCALE
  5
55
102
{ACAD_REACTORS
330
47
102
}
330
47
100
AcDbScale
 70
     0
300
4:1
140
4.0
141
1.0
290
     0
  0
SCALE
  5
56
102
{ACAD_REACTORS
330
47
102
}
330
47
100
AcDbScale
 70
     0
300
8:1
140
8.0
141
1.0
290
     0
  0
SCALE
  5
57
102
{ACAD_REACTORS
330
47
102
}
330
47
100
AcDbScale
 70
     0
300
10:1
140
10.0
141
1.0
290
     0
  0
SCALE
  5
58
102
{ACAD_REACTORS
330
47
102
}
330
47
100
AcDbScale
 70
     0
300
100:1
140
100.0
141
1.0
290
     0
  0
SCALE
  5
59
102
{ACAD_REACTORS
330
47
102
}
330
47
100
AcDbScale
 70
     0
300
1/128" = 1'-0"
140
0.0078125
141
12.0
290
     0
  0
SCALE
  5
5A
102
{ACAD_REACTORS
330
47
102
}
330
47
100
AcDbScale
 70
     0
300
1/64" = 1'-0"
140
0.015625
141
12.0
290
     0
  0
SCALE
  5
5B
102
{ACAD_REACTORS
330
47
102
}
330
47
100
AcDbScale
 70
     0
300
1/32" = 1'-0"
140
0.03125
141
12.0
290
     0
  0
SCALE
  5
5C
102
{ACAD_REACTORS
330
47
102
}
330
47
100
AcDbScale
 70
     0
300
1/16" = 1'-0"
140
0.0625
141
12.0
290
     0
  0
SCALE
  5
5D
102
{ACAD_REACTORS
330
47
102
}
330
47
100
AcDbScale
 70
     0
300
3/32" = 1'-0"
140
0.09375
141
12.0
290
     0
  0
SCALE
  5
5E
102
{ACAD_REACTORS
330
47
102
}
330
47
100
AcDbScale
 70
     0
300
1/8" = 1'-0"
140
0.125
141
12.0
290
     0
  0
SCALE
  5
5F
102
{ACAD_REACTORS
330
47
102
}
330
47
100
AcDbScale
 70
     0
300
3/16" = 1'-0"
140
0.1875
141
12.0
290
     0
  0
SCALE
  5
60
102
{ACAD_REACTORS
330
47
102
}
330
47
100
AcDbScale
 70
     0
300
1/4" = 1'-0"
140
0.25
141
12.0
290
     0
  0
SCALE
  5
61
102
{ACAD_REACTORS
330
47
102
}
330
47
100
AcDbScale
 70
     0
300
3/8" = 1'-0"
140
0.375
141
12.0
290
     0
  0
SCALE
  5
62
102
{ACAD_REACTORS
330
47
102
}
330
47
100
AcDbScale
 70
     0
300
1/2" = 1'-0"
140
0.5
141
12.0
290
     0
  0
SCALE
  5
63
102
{ACAD_REACTORS
330
47
102
}
330
47
100
AcDbScale
 70
     0
300
3/4" = 1'-0"
140
0.75
141
12.0
290
     0
  0
SCALE
  5
64
102
{ACAD_REACTORS
330
47
102
}
330
47
100
AcDbScale
 70
     0
300
1" = 1'-0"
140
1.0
141
12.0
290
     0
  0
SCALE
  5
65
102
{ACAD_REACTORS
330
47
102
}
330
47
100
AcDbScale
 70
     0
300
1-1/2" = 1'-0"
140
1.5
141
12.0
290
     0
  0
SCALE
  5
66
102
{ACAD_REACTORS
330
47
102
}
330
47
100
AcDbScale
 70
     0
300
3" = 1'-0"
140
3.0
141
12.0
290
     0
  0
SCALE
  5
67
102
{ACAD_REACTORS
330
47
102
}
330
47
100
AcDbScale
 70
     0
300
6" = 1'-0"
140
6.0
141
12.0
290
     0
  0
SCALE
  5
68
102
{ACAD_REACTORS
330
47
102
}
330
47
100
AcDbScale
 70
     0
300
1'-0" = 1'-0"
140
12.0
141
12.0
290
     0
  0
VISUALSTYLE
  5
2F
102
{ACAD_REACTORS
330
2A
102
}
102
{ACAD_XDICTIONARY
360
34F
102
}
330
2A
100
AcDbVisualStyle
  2
2dWireframe
 70
     4
 71
     0
 72
     2
 73
     0
 90
        0
 40
0.6
 41
30.0
 62
     5
 63
     7
421
 16777215
 74
     1
 91
        4
 64
     7
 65
   257
 75
     1
175
     1
 42
1.0
 92
        0
 66
   257
 43
1.0
 76
     1
 77
     6
 78
     2
 67
     7
 79
     5
170
     0
171
     0
290
     0
174
     0
 93
        1
 44
0.0
173
     0
291
     0
 45
0.0
1001
ACAD
1000
AcDbSavedByObjectVersion
1070
     0
  0
VISUALSTYLE
  5
32
102
{ACAD_REACTORS
330
2A
102
}
102
{ACAD_XDICTIONARY
360
355
102
}
330
2A
100
AcDbVisualStyle
  2
Basic
 70
     7
 71
     1
 72
     0
 73
     1
 90
        0
 40
0.6
 41
30.0
 62
     5
 63
     7
421
 16777215
 74
     0
 91
        4
 64
     7
 65
   257
 75
     1
175
     1
 42
1.0
 92
        8
 66
     7
 43
1.0
 76
     1
 77
     6
 78
     2
 67
     7
 79
     5
170
     0
171
     0
290
     0
174
     0
 93
        1
 44
0.0
173
     0
291
     1
 45
0.0
1001
ACAD
1000
AcDbSavedByObjectVersion
1070
     0
  0
VISUALSTYLE
  5
36
102
{ACAD_REACTORS
330
2A
102
}
102
{ACAD_XDICTIONARY
360
35D
102
}
330
2A
100
AcDbVisualStyle
  2
Brighten
 70
    12
 71
     2
 72
     2
 73
     0
 90
        0
 40
0.6
 41
30.0
 62
     5
 63
     7
421
 16777215
 74
     1
 91
        4
 64
     7
 65
   257
 75
     1
175
     1
 42
1.0
 92
        8
 66
     7
 43
1.0
 76
     1
 77
     6
 78
     2
 67
     7
 79
     5
170
     0
171
     0
290
     0
174
     0
 93
        1
 44
50.0
173
     0
291
     1
 45
0.0
1001
ACAD
1000
AcDbSavedByObjectVersion
1070
     0
  0
VISUALSTYLE
  5
3A
102
{ACAD_REACTORS
330
2A
102
}
102
{ACAD_XDICTIONARY
360
365
102
}
330
2A
100
AcDbVisualStyle
  2
ColorChange
 70
    16
 71
     2
 72
     2
 73
     3
 90
        0
 40
0.6
 41
30.0
 62
     5
 63
     8
421
  8421504
 74
     1
 91
        4
 64
     7
 65
   257
 75
     1
175
     1
 42
1.0
 92
        8
 66
     8
424
  8421504
 43
1.0
 76
     1
 77
     6
 78
     2
 67
     7
 79
     5
170
     0
171
     0
290
     0
174
     0
 93
        1
 44
0.0
173
     0
291
     1
 45
0.0
1001
ACAD
1000
AcDbSavedByObjectVersion
1070
     0
  0
VISUALSTYLE
  5
34
102
{ACAD_REACTORS
330
2A
102
}
102
{ACAD_XDICTIONARY
360
359
102
}
330
2A
100
AcDbVisualStyle
  2
Conceptual
 70
     9
 71
     3
 72
     2
 73
     0
 90
        0
 40
0.6
 41
30.0
 62
     5
 63
     7
421
 16777215
 74
     2
 91
        2
 64
     7
 65
   257
 75
     1
175
     1
 42
179.0
 92
        8
 66
     7
 43
1.0
 76
     1
 77
     6
 78
     2
 67
     7
 79
     3
170
     0
171
     0
290
     0
174
     0
 93
        1
 44
0.0
173
     0
291
     0
 45
0.0
1001
ACAD
1000
AcDbSavedByObjectVersion
1070
     0
  0
VISUALSTYLE
  5
35
102
{ACAD_REACTORS
330
2A
102
}
102
{ACAD_XDICTIONARY
360
35B
102
}
330
2A
100
AcDbVisualStyle
  2
Dim
 70
    11
 71
     2
 72
     2
 73
     0
 90
        0
 40
0.6
 41
30.0
 62
     5
 63
     7
421
 16777215
 74
     1
 91
        4
 64
     7
 65
   257
 75
     1
175
     1
 42
1.0
 92
        8
 66
     7
 43
1.0
 76
     1
 77
     6
 78
     2
 67
     7
 79
     5
170
     0
171
     0
290
     0
174
     0
 93
        1
 44
-50.0
173
     0
291
     1
 45
0.0
1001
ACAD
1000
AcDbSavedByObjectVersion
1070
     0
  0
VISUALSTYLE
  5
3D
102
{ACAD_REACTORS
330
2A
102
}
102
{ACAD_XDICTIONARY
360
36B
102
}
330
2A
100
AcDbVisualStyle
  2
EdgeColorOff
 70
    22
 71
     2
 72
     2
 73
     0
 90
        0
 40
0.6
 41
30.0
 62
     5
 63
     7
421
 16777215
 74
     1
 91
        4
 64
     7
 65
   257
 75
     1
175
     1
 42
1.0
 92
        8
 66
     7
 43
1.0
 76
     1
 77
     6
 78
     2
 67
     7
 79
     5
170
     0
171
     0
290
     0
174
     0
 93
        1
 44
0.0
173
     0
291
     1
 45
0.0
1001
ACAD
1000
AcDbSavedByObjectVersion
1070
     0
  0
VISUALSTYLE
  5
39
102
{ACAD_REACTORS
330
2A
102
}
102
{ACAD_XDICTIONARY
360
363
102
}
330
2A
100
AcDbVisualStyle
  2
Facepattern
 70
    15
 71
     2
 72
     2
 73
     0
 90
        0
 40
0.6
 41
30.0
 62
     5
 63
     7
421
 16777215
 74
     1
 91
        4
 64
     7
 65
   257
 75
     1
175
     1
 42
1.0
 92
        8
 66
     7
 43
1.0
 76
     1
 77
     6
 78
     2
 67
     7
 79
     5
170
     0
171
     0
290
     0
174
     0
 93
        1
 44
0.0
173
     0
291
     1
 45
0.0
1001
ACAD
1000
AcDbSavedByObjectVersion
1070
     0
  0
VISUALSTYLE
  5
2B
102
{ACAD_REACTORS
330
2A
102
}
102
{ACAD_XDICTIONARY
360
347
102
}
330
2A
100
AcDbVisualStyle
  2
Flat
 70
     0
 71
     2
 72
     1
 73
     1
 90
        2
 40
0.6
 41
30.0
 62
     5
 63
     7
421
 16777215
 74
     0
 91
        0
 64
     7
 65
   257
 75
     1
175
     1
 42
1.0
 92
        8
 66
     7
 43
1.0
 76
     1
 77
     6
 78
     2
 67
     7
 79
     5
170
     0
171
     0
290
     0
174
     0
 93
       13
 44
0.0
173
     0
291
     1
 45
0.0
1001
ACAD
1000
AcDbSavedByObjectVersion
1070
     0
  0
VISUALSTYLE
  5
2C
102
{ACAD_REACTORS
330
2A
102
}
102
{ACAD_XDICTIONARY
360
349
102
}
330
2A
100
AcDbVisualStyle
  2
FlatWithEdges
 70
     1
 71
     2
 72
     1
 73
     1
 90
        2
 40
0.6
 41
30.0
 62
     5
 63
     7
421
 16777215
 74
     1
 91
        0
 64
     7
 65
   257
 75
     1
175
     1
 42
1.0
 92
        0
 66
   257
 43
1.0
 76
     1
 77
     6
 78
     2
 67
     7
 79
     5
170
     0
171
     0
290
     0
174
     0
 93
       13
 44
0.0
173
     0
291
     1
 45
0.0
1001
ACAD
1000
AcDbSavedByObjectVersion
1070
     0
  0
VISUALSTYLE
  5
2D
102
{ACAD_REACTORS
330
2A
102
}
102
{ACAD_XDICTIONARY
360
34B
102
}
330
2A
100
AcDbVisualStyle
  2
Gouraud
 70
     2
 71
     2
 72
     2
 73
     1
 90
        2
 40
0.6
 41
30.0
 62
     5
 63
     7
421
 16777215
 74
     0
 91
        0
 64
     7
 65
   257
 75
     1
175
     1
 42
1.0
 92
        0
 66
     7
 43
1.0
 76
     1
 77
     6
 78
     2
 67
     7
 79
     5
170
     0
171
     0
290
     0
174
     0
 93
       13
 44
0.0
173
     0
291
     1
 45
0.0
1001
ACAD
1000
AcDbSavedByObjectVersion
1070
     0
  0
VISUALSTYLE
  5
2E
102
{ACAD_REACTORS
330
2A
102
}
102
{ACAD_XDICTIONARY
360
34D
102
}
330
2A
100
AcDbVisualStyle
  2
GouraudWithEdges
 70
     3
 71
     2
 72
     2
 73
     1
 90
        2
 40
0.6
 41
30.0
 62
     5
 63
     7
421
 16777215
 74
     1
 91
        0
 64
     7
 65
   257
 75
     1
175
     1
 42
1.0
 92
        0
 66
   257
 43
1.0
 76
     1
 77
     6
 78
     2
 67
     7
 79
     5
170
     0
171
     0
290
     0
174
     0
 93
       13
 44
0.0
173
     0
291
     1
 45
0.0
1001
ACAD
1000
AcDbSavedByObjectVersion
1070
     0
  0
VISUALSTYLE
  5
31
102
{ACAD_REACTORS
330
2A
102
}
102
{ACAD_XDICTIONARY
360
353
102
}
330
2A
100
AcDbVisualStyle
  2
Hidden
 70
     6
 71
     1
 72
     2
 73
     2
 90
        0
 40
0.6
 41
30.0
 62
     5
 63
     7
421
 16777215
 74
     2
 91
        2
 64
     7
 65
   257
 75
     2
175
     1
 42
40.0
 92
        0
 66
   257
 43
1.0
 76
     1
 77
     6
 78
     2
 67
     7
 79
     3
170
     0
171
     0
290
     0
174
     0
 93
        1
 44
0.0
173
     0
291
     0
 45
0.0
1001
ACAD
1000
AcDbSavedByObjectVersion
1070
     0
  0
VISUALSTYLE
  5
3B
102
{ACAD_REACTORS
330
2A
102
}
102
{ACAD_XDICTIONARY
360
367
102
}
330
2A
100
AcDbVisualStyle
  2
JitterOff
 70
    20
 71
     2
 72
     2
 73
     0
 90
        0
 40
0.6
 41
30.0
 62
     5
 63
     7
421
 16777215
 74
     1
 91
        4
 64
     7
 65
   257
 75
     1
175
     1
 42
1.0
 92
       10
 66
     7
 43
1.0
 76
     1
 77
     6
 78
     2
 67
     7
 79
     5
170
     0
171
     0
290
     0
174
     0
 93
        1
 44
0.0
173
     0
291
     1
 45
0.0
1001
ACAD
1000
AcDbSavedByObjectVersion
1070
     0
  0
VISUALSTYLE
  5
38
102
{ACAD_REACTORS
330
2A
102
}
102
{ACAD_XDICTIONARY
360
361
102
}
330
2A
100
AcDbVisualStyle
  2
Linepattern
 70
    14
 71
     2
 72
     2
 73
     0
 90
        0
 40
0.6
 41
30.0
 62
     5
 63
     7
421
 16777215
 74
     1
 91
        4
 64
     7
 65
   257
 75
     7
175
     7
 42
1.0
 92
        8
 66
     7
 43
1.0
 76
     1
 77
     6
 78
     2
 67
     7
 79
     5
170
     0
171
     0
290
     0
174
     0
 93
        1
 44
0.0
173
     0
291
     1
 45
0.0
1001
ACAD
1000
AcDbSavedByObjectVersion
1070
     0
  0
VISUALSTYLE
  5
3C
102
{ACAD_REACTORS
330
2A
102
}
102
{ACAD_XDICTIONARY
360
369
102
}
330
2A
100
AcDbVisualStyle
  2
OverhangOff
 70
    21
 71
     2
 72
     2
 73
     0
 90
        0
 40
0.6
 41
30.0
 62
     5
 63
     7
421
 16777215
 74
     1
 91
        4
 64
     7
 65
   257
 75
     1
175
     1
 42
1.0
 92
        9
 66
     7
 43
1.0
 76
     1
 77
     6
 78
     2
 67
     7
 79
     5
170
     0
171
     0
290
     0
174
     0
 93
        1
 44
0.0
173
     0
291
     1
 45
0.0
1001
ACAD
1000
AcDbSavedByObjectVersion
1070
     0
  0
VISUALSTYLE
  5
33
102
{ACAD_REACTORS
330
2A
102
}
102
{ACAD_XDICTIONARY
360
357
102
}
330
2A
100
AcDbVisualStyle
  2
Realistic
 70
     8
 71
     2
 72
     3
 73
     0
 90
        2
 40
0.6
 41
30.0
 62
     5
 63
     7
421
 16777215
 74
     0
 91
        0
 64
     7
 65
   257
 75
     1
175
     1
 42
1.0
 92
        8
 66
   257
 43
1.0
 76
     1
 77
     6
 78
     2
 67
     7
 79
     3
170
     0
171
     0
290
     0
174
     0
 93
       13
 44
0.0
173
     0
291
     0
 45
0.0
1001
ACAD
1000
AcDbSavedByObjectVersion
1070
     0
  0
VISUALSTYLE
  5
42
102
{ACAD_REACTORS
330
2A
102
}
102
{ACAD_XDICTIONARY
360
375
102
}
330
2A
100
AcDbVisualStyle
  2
Shaded
 70
    27
 71
     2
 72
     2
 73
     1
 90
        2
 40
0.6
 41
30.0
 62
     5
 63
     7
421
 16777215
 74
     0
 91
        4
 64
     7
 65
   257
 75
     1
175
     1
 42
1.0
 92
        8
 66
   257
 43
1.0
 76
     1
 77
     6
 78
     2
 67
     8
425
  7895160
 79
     3
170
     0
171
     0
290
     0
174
     0
 93
        5
 44
0.0
173
     0
291
     0
 45
0.0
1001
ACAD
1000
AcDbSavedByObjectVersion
1070
     0
  0
VISUALSTYLE
  5
41
102
{ACAD_REACTORS
330
2A
102
}
102
{ACAD_XDICTIONARY
360
373
102
}
330
2A
100
AcDbVisualStyle
  2
Shaded with edges
 70
    26
 71
     2
 72
     2
 73
     1
 90
        2
 40
0.6
 41
30.0
 62
     5
 63
     7
421
 16777215
 74
     1
 91
       10
 64
     7
 65
   257
 75
     2
175
     1
 42
1.0
 92
        8
 66
   257
 43
1.0
 76
     1
 77
     6
 78
     2
 67
     7
 79
     3
170
     0
171
     0
290
     0
174
     0
 93
        5
 44
0.0
173
     0
291
     0
 45
0.0
1001
ACAD
1000
AcDbSavedByObjectVersion
1070
     0
  0
VISUALSTYLE
  5
3E
102
{ACAD_REACTORS
330
2A
102
}
102
{ACAD_XDICTIONARY
360
36D
102
}
330
2A
100
AcDbVisualStyle
  2
Shades of Gray
 70
    23
 71
     2
 72
     2
 73
     3
 90
        0
 40
0.6
 41
30.0
 62
     5
 63
     7
421
 16777215
 74
     2
 91
        2
 64
     7
 65
     7
 75
     1
175
     1
 42
40.0
 92
        8
 66
     7
 43
1.0
 76
     1
 77
     6
 78
     2
 67
     7
 79
     3
170
     0
171
     0
290
     0
174
     0
 93
        1
 44
0.0
173
     0
291
     0
 45
0.0
1001
ACAD
1000
AcDbSavedByObjectVersion
1070
     0
  0
VISUALSTYLE
  5
3F
102
{ACAD_REACTORS
330
2A
102
}
102
{ACAD_XDICTIONARY
360
36F
102
}
330
2A
100
AcDbVisualStyle
  2
Sketchy
 70
    24
 71
     1
 72
     2
 73
     2
 90
        0
 40
0.6
 41
30.0
 62
     5
 63
     7
421
 16777215
 74
     2
 91
        2
 64
     7
 65
     7
 75
     1
175
     1
 42
40.0
 92
       11
 66
     7
 43
1.0
 76
     1
 77
     6
 78
     2
 67
     7
 79
     6
170
     0
171
     0
290
     0
174
     0
 93
        1
 44
0.0
173
     0
291
     0
 45
0.0
1001
ACAD
1000
AcDbSavedByObjectVersion
1070
     0
  0
VISUALSTYLE
  5
37
102
{ACAD_REACTORS
330
2A
102
}
102
{ACAD_XDICTIONARY
360
35F
102
}
330
2A
100
AcDbVisualStyle
  2
Thicken
 70
    13
 71
     2
 72
     2
 73
     0
 90
        0
 40
0.6
 41
30.0
 62
     5
 63
     7
421
 16777215
 74
     1
 91
        4
 64
     7
 65
   257
 75
     1
175
     1
 42
1.0
 92
       12
 66
     7
 43
1.0
 76
     1
 77
     6
 78
     2
 67
     7
 79
     5
170
     0
171
     0
290
     0
174
     0
 93
        1
 44
0.0
173
     0
291
     1
 45
0.0
1001
ACAD
1000
AcDbSavedByObjectVersion
1070
     0
  0
VISUALSTYLE
  5
30
102
{ACAD_REACTORS
330
2A
102
}
102
{ACAD_XDICTIONARY
360
351
102
}
330
2A
100
AcDbVisualStyle
  2
Wireframe
 70
     5
 71
     0
 72
     2
 73
     0
 90
        0
 40
0.6
 41
30.0
 62
     5
 63
     7
421
 16777215
 74
     1
 91
        4
 64
     7
 65
   257
 75
     1
175
     1
 42
1.0
 92
        0
 66
   257
 43
1.0
 76
     1
 77
     6
 78
     2
 67
     7
 79
     3
170
     0
171
     0
290
     0
174
     0
 93
        1
 44
0.0
173
     0
291
     0
 45
0.0
1001
ACAD
1000
AcDbSavedByObjectVersion
1070
     0
  0
VISUALSTYLE
  5
40
102
{ACAD_REACTORS
330
2A
102
}
102
{ACAD_XDICTIONARY
360
371
102
}
330
2A
100
AcDbVisualStyle
  2
X-Ray
 70
    25
 71
     2
 72
     2
 73
     1
 90
        1
 40
0.5
 41
30.0
 62
     5
 63
     7
421
 16777215
 74
     1
 91
        0
 64
     7
 65
   257
 75
     1
175
     1
 42
1.0
 92
        8
 66
     7
 43
1.0
 76
     1
 77
     6
 78
     2
 67
     7
 79
     3
170
     0
171
     0
290
     0
174
     0
 93
       13
 44
0.0
173
     0
291
     0
 45
0.0
1001
ACAD
1000
AcDbSavedByObjectVersion
1070
     0
  0
DICTIONARYVAR
  5
345
102
{ACAD_REACTORS
330
344
102
}
330
344
100
DictionaryVariables
280
     0
  1
1:1
  0
DICTIONARYVAR
  5
346
102
{ACAD_REACTORS
330
344
102
}
330
344
100
DictionaryVariables
280
     0
  1
1
  0
DICTIONARY
  5
379
330
45
100
AcDbDictionary
280
     1
281
     1
  3
ACAD_XREC_ROUNDTRIP
360
37A
  0
DICTIONARY
  5
377
330
44
100
AcDbDictionary
280
     1
281
     1
  3
ACAD_XREC_ROUNDTRIP
360
378
  0
DICTIONARY
  5
37B
330
46
100
AcDbDictionary
280
     1
281
     1
  3
ACAD_XREC_ROUNDTRIP
360
37C
  0
DICTIONARY
  5
34F
330
2F
100
AcDbDictionary
280
     1
281
     1
  3
ACAD_XREC_ROUNDTRIP
360
350
  0
DICTIONARY
  5
355
330
32
100
AcDbDictionary
280
     1
281
     1
  3
ACAD_XREC_ROUNDTRIP
360
356
  0
DICTIONARY
  5
35D
330
36
100
AcDbDictionary
280
     1
281
     1
  3
ACAD_XREC_ROUNDTRIP
360
35E
  0
DICTIONARY
  5
365
330
3A
100
AcDbDictionary
280
     1
281
     1
  3
ACAD_XREC_ROUNDTRIP
360
366
  0
DICTIONARY
  5
359
330
34
100
AcDbDictionary
280
     1
281
     1
  3
ACAD_XREC_ROUNDTRIP
360
35A
  0
DICTIONARY
  5
35B
330
35
100
AcDbDictionary
280
     1
281
     1
  3
ACAD_XREC_ROUNDTRIP
360
35C
  0
DICTIONARY
  5
36B
330
3D
100
AcDbDictionary
280
     1
281
     1
  3
ACAD_XREC_ROUNDTRIP
360
36C
  0
DICTIONARY
  5
363
330
39
100
AcDbDictionary
280
     1
281
     1
  3
ACAD_XREC_ROUNDTRIP
360
364
  0
DICTIONARY
  5
347
330
2B
100
AcDbDictionary
280
     1
281
     1
  3
ACAD_XREC_ROUNDTRIP
360
348
  0
DICTIONARY
  5
349
330
2C
100
AcDbDictionary
280
     1
281
     1
  3
ACAD_XREC_ROUNDTRIP
360
34A
  0
DICTIONARY
  5
34B
330
2D
100
AcDbDictionary
280
     1
281
     1
  3
ACAD_XREC_ROUNDTRIP
360
34C
  0
DICTIONARY
  5
34D
330
2E
100
AcDbDictionary
280
     1
281
     1
  3
ACAD_XREC_ROUNDTRIP
360
34E
  0
DICTIONARY
  5
353
330
31
100
AcDbDictionary
280
     1
281
     1
  3
ACAD_XREC_ROUNDTRIP
360
354
  0
DICTIONARY
  5
367
330
3B
100
AcDbDictionary
280
     1
281
     1
  3
ACAD_XREC_ROUNDTRIP
360
368
  0
DICTIONARY
  5
361
330
38
100
AcDbDictionary
280
     1
281
     1
  3
ACAD_XREC_ROUNDTRIP
360
362
  0
DICTIONARY
  5
369
330
3C
100
AcDbDictionary
280
     1
281
     1
  3
ACAD_XREC_ROUNDTRIP
360
36A
  0
DICTIONARY
  5
357
330
33
100
AcDbDictionary
280
     1
281
     1
  3
ACAD_XREC_ROUNDTRIP
360
358
  0
DICTIONARY
  5
375
330
42
100
AcDbDictionary
280
     1
281
     1
  3
ACAD_XREC_ROUNDTRIP
360
376
  0
DICTIONARY
  5
373
330
41
100
AcDbDictionary
280
     1
281
     1
  3
ACAD_XREC_ROUNDTRIP
360
374
  0
DICTIONARY
  5
36D
330
3E
100
AcDbDictionary
280
     1
281
     1
  3
ACAD_XREC_ROUNDTRIP
360
36E
  0
DICTIONARY
  5
36F
330
3F
100
AcDbDictionary
280
     1
281
     1
  3
ACAD_XREC_ROUNDTRIP
360
370
  0
DICTIONARY
  5
35F
330
37
100
AcDbDictionary
280
     1
281
     1
  3
ACAD_XREC_ROUNDTRIP
360
360
  0
DICTIONARY
  5
351
330
30
100
AcDbDictionary
280
     1
281
     1
  3
ACAD_XREC_ROUNDTRIP
360
352
  0
DICTIONARY
  5
371
330
40
100
AcDbDictionary
280
     1
281
     1
  3
ACAD_XREC_ROUNDTRIP
360
372
  0
XRECORD
  5
37A
102
{ACAD_REACTORS
330
379
102
}
330
379
100
AcDbXrecord
280
     1
102
MATERIAL
148
0.0
149
0.0
149
0.0
 93
        0
 94
      127
282
     0
 72
     1
 77
     1
171
     1
175
     1
179
     1
273
     0
  0
XRECORD
  5
378
102
{ACAD_REACTORS
330
377
102
}
330
377
100
AcDbXrecord
280
     1
102
MATERIAL
148
0.0
149
0.0
149
0.0
 93
        0
 94
      127
282
     0
 72
     1
 77
     1
171
     1
175
     1
179
     1
273
     0
  0
XRECORD
  5
37C
102
{ACAD_REACTORS
330
37B
102
}
330
37B
100
AcDbXrecord
280
     1
102
MATERIAL
148
0.0
149
0.0
149
0.0
 93
        0
 94
      127
282
     0
 72
     1
 77
     1
171
     1
175
     1
179
     1
273
     0
  0
XRECORD
  5
350
102
{ACAD_REACTORS
330
34F
102
}
330
34F
100
AcDbXrecord
280
     1
102
RTVSPropertyOp0
 70
     1
102
RTVSPropertyOp1
 70
     1
102
RTVSPropertyOp2
 70
     1
102
RTVSPropertyOp3
 70
     1
102
RTVSPropertyOp4
 70
     1
102
RTVSPropertyOp5
 70
     1
102
RTVSPropertyOp6
 70
     1
102
RTVSPropertyOp7
 70
     1
102
RTVSPropertyOp8
 70
     1
102
RTVSPropertyOp9
 70
     1
102
RTVSPropertyOp10
 70
     1
102
RTVSPropertyOp11
 70
     1
102
RTVSPropertyOp12
 70
     1
102
RTVSPropertyOp13
 70
     1
102
RTVSPropertyOp14
 70
     1
102
RTVSPropertyOp15
 70
     1
102
RTVSPropertyOp16
 70
     1
102
RTVSPropertyOp17
 70
     1
102
RTVSPropertyOp18
 70
     1
102
RTVSPropertyOp19
 70
     1
102
RTVSPropertyOp20
 70
     1
102
RTVSPropertyOp21
 70
     1
102
RTVSPropertyOp22
 70
     1
102
RTVSPropertyOp23
 70
     1
102
RTVSPropertyOp24
 70
     1
102
RTVSPropertyOp25
 70
     1
102
RTVSPropertyOp26
 70
     1
102
RTVSPropertyOp27
 70
     1
102
RTVSPropertyOp28
 70
     1
102
RTVSPropertyOp29
 70
     1
102
RTVSPropertyOp30
 70
     1
102
RTVSPropertyOp31
 70
     1
102
RTVSPropertyOp32
 70
     1
102
RTVSPropertyOp33
 70
     1
102
RTVSPropertyOp34
 70
     1
102
RTVSPropertyOp35
 70
     1
102
RTVSPropertyOp36
 70
     1
102
RTVSPropertyOp37
 70
     1
102
RTVSPropertyOp38
 70
     1
102
RTVSPropertyOp39
 70
     1
102
RTVSPropertyOp40
 70
     1
102
RTVSPropertyOp41
 70
     1
102
RTVSPropertyOp42
 70
     1
102
RTVSPropertyOp43
 70
     1
102
RTVSPropertyOp44
 70
     1
102
RTVSPropertyOp45
 70
     1
102
RTVSPropertyOp46
 70
     1
102
RTVSPropertyOp47
 70
     1
102
RTVSPropertyOp48
 70
     1
102
RTVSPropertyOp49
 70
     1
102
RTVSPropertyOp50
 70
     1
102
RTVSPropertyOp51
 70
     0
102
RTVSPropertyOp52
 70
     0
102
RTVSPropertyOp53
 70
     1
102
RTVSPropertyOp54
 70
     1
102
RTVSPropertyOp55
 70
     1
102
RTVSPropertyOp56
 70
     1
102
RTVSPropertyOp57
 70
     1
102
RTVSPost2010Prop28
280
     1
102
RTVSPost2010PropOp28
 70
     1
102
RTVSPost2010Prop29
280
     1
102
RTVSPost2010PropOp29
 70
     1
102
RTVSPost2010Prop30
280
     0
102
RTVSPost2010PropOp30
 70
     1
102
RTVSPost2010Prop31
280
     0
102
RTVSPost2010PropOp31
 70
     1
102
RTVSPost2010Prop32
280
     0
102
RTVSPost2010PropOp32
 70
     1
102
RTVSPost2010Prop33
280
     0
102
RTVSPost2010PropOp33
 70
     1
102
RTVSPost2010Prop34
280
     0
102
RTVSPost2010PropOp34
 70
     1
102
RTVSPost2010Prop35
280
     0
102
RTVSPost2010PropOp35
 70
     1
102
RTVSPost2010Prop36
280
     0
102
RTVSPost2010PropOp36
 70
     1
102
RTVSPost2010Prop37
 90
       50
102
RTVSPost2010PropOp37
 70
     1
102
RTVSPost2010Prop38
140
0.0
102
RTVSPost2010PropOp38
 70
     1
102
RTVSPost2010Prop39
140
1.0
102
RTVSPost2010PropOp39
 70
     1
102
RTVSPost2010Prop40
 90
        0
102
RTVSPost2010PropOp40
 70
     1
102
RTVSPost2010Prop41ColorIndex
 90
       18
102
RTVSPost2010Prop41ColorRGB
 90
        0
102
RTVSPost2010PropOp41
 70
     1
102
RTVSPost2010Prop42
 90
       50
102
RTVSPost2010PropOp42
 70
     1
102
RTVSPost2010Prop43
 90
        3
102
RTVSPost2010PropOp43
 70
     1
102
RTVSPost2010Prop44ColorIndex
 90
        5
102
RTVSPost2010Prop44ColorRGB
 90
      255
102
RTVSPost2010PropOp44
 70
     1
102
RTVSPost2010Prop45
280
     0
102
RTVSPost2010PropOp45
 70
     1
102
RTVSPost2010Prop46
 90
       50
102
RTVSPost2010PropOp46
 70
     1
102
RTVSPost2010Prop47
 90
       50
102
RTVSPost2010PropOp47
 70
     1
102
RTVSPost2010Prop48
 90
       50
102
RTVSPost2010PropOp48
 70
     1
102
RTVSPost2010Prop49
280
     0
102
RTVSPost2010PropOp49
 70
     1
102
RTVSPost2010Prop50
 90
       50
102
RTVSPost2010PropOp50
 70
     1
102
RTVSPost2010Prop51ColorIndex
 90
      256
102
RTVSPost2010Prop51ColorRGB
 90
-16777216
102
RTVSPost2010PropOp51
 70
     0
102
RTVSPost2010Prop52
140
1.0
102
RTVSPost2010PropOp52
 70
     0
102
RTVSPost2010Prop53
 90
        2
102
RTVSPost2010PropOp53
 70
     1
102
RTVSPost2010Prop54
  1
strokes_ogs.tif
102
RTVSPost2010PropOp54
 70
     1
102
RTVSPost2010Prop55
280
     0
102
RTVSPost2010PropOp55
 70
     1
102
RTVSPost2010Prop56
140
1.0
102
RTVSPost2010PropOp56
 70
     1
102
RTVSPost2010Prop57
140
1.0
102
RTVSPost2010PropOp57
 70
     1
  0
XRECORD
  5
356
102
{ACAD_REACTORS
330
355
102
}
330
355
100
AcDbXrecord
280
     1
102
RTVSPropertyOp0
 70
     1
102
RTVSPropertyOp1
 70
     1
102
RTVSPropertyOp2
 70
     1
102
RTVSPropertyOp3
 70
     1
102
RTVSPropertyOp4
 70
     1
102
RTVSPropertyOp5
 70
     1
102
RTVSPropertyOp6
 70
     1
102
RTVSPropertyOp7
 70
     1
102
RTVSPropertyOp8
 70
     1
102
RTVSPropertyOp9
 70
     1
102
RTVSPropertyOp10
 70
     1
102
RTVSPropertyOp11
 70
     1
102
RTVSPropertyOp12
 70
     1
102
RTVSPropertyOp13
 70
     1
102
RTVSPropertyOp14
 70
     1
102
RTVSPropertyOp15
 70
     1
102
RTVSPropertyOp16
 70
     1
102
RTVSPropertyOp17
 70
     1
102
RTVSPropertyOp18
 70
     1
102
RTVSPropertyOp19
 70
     1
102
RTVSPropertyOp20
 70
     1
102
RTVSPropertyOp21
 70
     1
102
RTVSPropertyOp22
 70
     1
102
RTVSPropertyOp23
 70
     1
102
RTVSPropertyOp24
 70
     1
102
RTVSPropertyOp25
 70
     1
102
RTVSPropertyOp26
 70
     1
102
RTVSPropertyOp27
 70
     1
102
RTVSPropertyOp28
 70
     1
102
RTVSPropertyOp29
 70
     1
102
RTVSPropertyOp30
 70
     1
102
RTVSPropertyOp31
 70
     1
102
RTVSPropertyOp32
 70
     1
102
RTVSPropertyOp33
 70
     1
102
RTVSPropertyOp34
 70
     1
102
RTVSPropertyOp35
 70
     1
102
RTVSPropertyOp36
 70
     1
102
RTVSPropertyOp37
 70
     1
102
RTVSPropertyOp38
 70
     1
102
RTVSPropertyOp39
 70
     1
102
RTVSPropertyOp40
 70
     1
102
RTVSPropertyOp41
 70
     1
102
RTVSPropertyOp42
 70
     1
102
RTVSPropertyOp43
 70
     1
102
RTVSPropertyOp44
 70
     1
102
RTVSPropertyOp45
 70
     1
102
RTVSPropertyOp46
 70
     1
102
RTVSPropertyOp47
 70
     1
102
RTVSPropertyOp48
 70
     1
102
RTVSPropertyOp49
 70
     1
102
RTVSPropertyOp50
 70
     1
102
RTVSPropertyOp51
 70
     0
102
RTVSPropertyOp52
 70
     0
102
RTVSPropertyOp53
 70
     1
102
RTVSPropertyOp54
 70
     1
102
RTVSPropertyOp55
 70
     1
102
RTVSPropertyOp56
 70
     1
102
RTVSPropertyOp57
 70
     1
102
RTVSPost2010Prop28
280
     0
102
RTVSPost2010PropOp28
 70
     1
102
RTVSPost2010Prop29
280
     1
102
RTVSPost2010PropOp29
 70
     1
102
RTVSPost2010Prop30
280
     1
102
RTVSPost2010PropOp30
 70
     1
102
RTVSPost2010Prop31
280
     0
102
RTVSPost2010PropOp31
 70
     1
102
RTVSPost2010Prop32
280
     0
102
RTVSPost2010PropOp32
 70
     1
102
RTVSPost2010Prop33
280
     0
102
RTVSPost2010PropOp33
 70
     1
102
RTVSPost2010Prop34
280
     0
102
RTVSPost2010PropOp34
 70
     1
102
RTVSPost2010Prop35
280
     0
102
RTVSPost2010PropOp35
 70
     1
102
RTVSPost2010Prop36
280
     0
102
RTVSPost2010PropOp36
 70
     1
102
RTVSPost2010Prop37
 90
       50
102
RTVSPost2010PropOp37
 70
     1
102
RTVSPost2010Prop38
140
0.0
102
RTVSPost2010PropOp38
 70
     1
102
RTVSPost2010Prop39
140
1.0
102
RTVSPost2010PropOp39
 70
     1
102
RTVSPost2010Prop40
 90
        0
102
RTVSPost2010PropOp40
 70
     1
102
RTVSPost2010Prop41ColorIndex
 90
       18
102
RTVSPost2010Prop41ColorRGB
 90
        0
102
RTVSPost2010PropOp41
 70
     1
102
RTVSPost2010Prop42
 90
       50
102
RTVSPost2010PropOp42
 70
     1
102
RTVSPost2010Prop43
 90
        3
102
RTVSPost2010PropOp43
 70
     1
102
RTVSPost2010Prop44ColorIndex
 90
        5
102
RTVSPost2010Prop44ColorRGB
 90
      255
102
RTVSPost2010PropOp44
 70
     1
102
RTVSPost2010Prop45
280
     0
102
RTVSPost2010PropOp45
 70
     1
102
RTVSPost2010Prop46
 90
       50
102
RTVSPost2010PropOp46
 70
     1
102
RTVSPost2010Prop47
 90
       50
102
RTVSPost2010PropOp47
 70
     1
102
RTVSPost2010Prop48
 90
       50
102
RTVSPost2010PropOp48
 70
     1
102
RTVSPost2010Prop49
280
     0
102
RTVSPost2010PropOp49
 70
     1
102
RTVSPost2010Prop50
 90
       50
102
RTVSPost2010PropOp50
 70
     1
102
RTVSPost2010Prop51ColorIndex
 90
      256
102
RTVSPost2010Prop51ColorRGB
 90
-16777216
102
RTVSPost2010PropOp51
 70
     0
102
RTVSPost2010Prop52
140
1.0
102
RTVSPost2010PropOp52
 70
     0
102
RTVSPost2010Prop53
 90
        2
102
RTVSPost2010PropOp53
 70
     1
102
RTVSPost2010Prop54
  1
strokes_ogs.tif
102
RTVSPost2010PropOp54
 70
     1
102
RTVSPost2010Prop55
280
     0
102
RTVSPost2010PropOp55
 70
     1
102
RTVSPost2010Prop56
140
1.0
102
RTVSPost2010PropOp56
 70
     1
102
RTVSPost2010Prop57
140
1.0
102
RTVSPost2010PropOp57
 70
     1
  0
XRECORD
  5
35E
102
{ACAD_REACTORS
330
35D
102
}
330
35D
100
AcDbXrecord
280
     1
102
RTVSPropertyOp0
 70
     1
102
RTVSPropertyOp1
 70
     1
102
RTVSPropertyOp2
 70
     1
102
RTVSPropertyOp3
 70
     1
102
RTVSPropertyOp4
 70
     1
102
RTVSPropertyOp5
 70
     1
102
RTVSPropertyOp6
 70
     1
102
RTVSPropertyOp7
 70
     1
102
RTVSPropertyOp8
 70
     1
102
RTVSPropertyOp9
 70
     1
102
RTVSPropertyOp10
 70
     1
102
RTVSPropertyOp11
 70
     1
102
RTVSPropertyOp12
 70
     1
102
RTVSPropertyOp13
 70
     1
102
RTVSPropertyOp14
 70
     1
102
RTVSPropertyOp15
 70
     1
102
RTVSPropertyOp16
 70
     1
102
RTVSPropertyOp17
 70
     1
102
RTVSPropertyOp18
 70
     1
102
RTVSPropertyOp19
 70
     1
102
RTVSPropertyOp20
 70
     1
102
RTVSPropertyOp21
 70
     1
102
RTVSPropertyOp22
 70
     1
102
RTVSPropertyOp23
 70
     1
102
RTVSPropertyOp24
 70
     1
102
RTVSPropertyOp25
 70
     1
102
RTVSPropertyOp26
 70
     1
102
RTVSPropertyOp27
 70
     1
102
RTVSPropertyOp28
 70
     1
102
RTVSPropertyOp29
 70
     1
102
RTVSPropertyOp30
 70
     1
102
RTVSPropertyOp31
 70
     1
102
RTVSPropertyOp32
 70
     1
102
RTVSPropertyOp33
 70
     1
102
RTVSPropertyOp34
 70
     1
102
RTVSPropertyOp35
 70
     1
102
RTVSPropertyOp36
 70
     1
102
RTVSPropertyOp37
 70
     1
102
RTVSPropertyOp38
 70
     1
102
RTVSPropertyOp39
 70
     1
102
RTVSPropertyOp40
 70
     1
102
RTVSPropertyOp41
 70
     1
102
RTVSPropertyOp42
 70
     1
102
RTVSPropertyOp43
 70
     1
102
RTVSPropertyOp44
 70
     1
102
RTVSPropertyOp45
 70
     1
102
RTVSPropertyOp46
 70
     1
102
RTVSPropertyOp47
 70
     1
102
RTVSPropertyOp48
 70
     1
102
RTVSPropertyOp49
 70
     1
102
RTVSPropertyOp50
 70
     1
102
RTVSPropertyOp51
 70
     0
102
RTVSPropertyOp52
 70
     0
102
RTVSPropertyOp53
 70
     1
102
RTVSPropertyOp54
 70
     1
102
RTVSPropertyOp55
 70
     1
102
RTVSPropertyOp56
 70
     1
102
RTVSPropertyOp57
 70
     1
102
RTVSPost2010Prop28
280
     0
102
RTVSPost2010PropOp28
 70
     1
102
RTVSPost2010Prop29
280
     1
102
RTVSPost2010PropOp29
 70
     1
102
RTVSPost2010Prop30
280
     1
102
RTVSPost2010PropOp30
 70
     1
102
RTVSPost2010Prop31
280
     0
102
RTVSPost2010PropOp31
 70
     1
102
RTVSPost2010Prop32
280
     0
102
RTVSPost2010PropOp32
 70
     1
102
RTVSPost2010Prop33
280
     0
102
RTVSPost2010PropOp33
 70
     1
102
RTVSPost2010Prop34
280
     0
102
RTVSPost2010PropOp34
 70
     1
102
RTVSPost2010Prop35
280
     0
102
RTVSPost2010PropOp35
 70
     1
102
RTVSPost2010Prop36
280
     0
102
RTVSPost2010PropOp36
 70
     1
102
RTVSPost2010Prop37
 90
       50
102
RTVSPost2010PropOp37
 70
     1
102
RTVSPost2010Prop38
140
0.0
102
RTVSPost2010PropOp38
 70
     1
102
RTVSPost2010Prop39
140
1.0
102
RTVSPost2010PropOp39
 70
     1
102
RTVSPost2010Prop40
 90
        0
102
RTVSPost2010PropOp40
 70
     1
102
RTVSPost2010Prop41ColorIndex
 90
       18
102
RTVSPost2010Prop41ColorRGB
 90
        0
102
RTVSPost2010PropOp41
 70
     1
102
RTVSPost2010Prop42
 90
       50
102
RTVSPost2010PropOp42
 70
     1
102
RTVSPost2010Prop43
 90
        3
102
RTVSPost2010PropOp43
 70
     1
102
RTVSPost2010Prop44ColorIndex
 90
        5
102
RTVSPost2010Prop44ColorRGB
 90
      255
102
RTVSPost2010PropOp44
 70
     1
102
RTVSPost2010Prop45
280
     0
102
RTVSPost2010PropOp45
 70
     1
102
RTVSPost2010Prop46
 90
       50
102
RTVSPost2010PropOp46
 70
     1
102
RTVSPost2010Prop47
 90
       50
102
RTVSPost2010PropOp47
 70
     1
102
RTVSPost2010Prop48
 90
       50
102
RTVSPost2010PropOp48
 70
     1
102
RTVSPost2010Prop49
280
     0
102
RTVSPost2010PropOp49
 70
     1
102
RTVSPost2010Prop50
 90
       50
102
RTVSPost2010PropOp50
 70
     1
102
RTVSPost2010Prop51ColorIndex
 90
      256
102
RTVSPost2010Prop51ColorRGB
 90
-16777216
102
RTVSPost2010PropOp51
 70
     0
102
RTVSPost2010Prop52
140
1.0
102
RTVSPost2010PropOp52
 70
     0
102
RTVSPost2010Prop53
 90
        2
102
RTVSPost2010PropOp53
 70
     1
102
RTVSPost2010Prop54
  1
strokes_ogs.tif
102
RTVSPost2010PropOp54
 70
     1
102
RTVSPost2010Prop55
280
     0
102
RTVSPost2010PropOp55
 70
     1
102
RTVSPost2010Prop56
140
1.0
102
RTVSPost2010PropOp56
 70
     1
102
RTVSPost2010Prop57
140
1.0
102
RTVSPost2010PropOp57
 70
     1
  0
XRECORD
  5
366
102
{ACAD_REACTORS
330
365
102
}
330
365
100
AcDbXrecord
280
     1
102
RTVSPropertyOp0
 70
     1
102
RTVSPropertyOp1
 70
     1
102
RTVSPropertyOp2
 70
     1
102
RTVSPropertyOp3
 70
     1
102
RTVSPropertyOp4
 70
     1
102
RTVSPropertyOp5
 70
     1
102
RTVSPropertyOp6
 70
     1
102
RTVSPropertyOp7
 70
     1
102
RTVSPropertyOp8
 70
     1
102
RTVSPropertyOp9
 70
     1
102
RTVSPropertyOp10
 70
     1
102
RTVSPropertyOp11
 70
     1
102
RTVSPropertyOp12
 70
     1
102
RTVSPropertyOp13
 70
     1
102
RTVSPropertyOp14
 70
     1
102
RTVSPropertyOp15
 70
     1
102
RTVSPropertyOp16
 70
     1
102
RTVSPropertyOp17
 70
     1
102
RTVSPropertyOp18
 70
     1
102
RTVSPropertyOp19
 70
     1
102
RTVSPropertyOp20
 70
     1
102
RTVSPropertyOp21
 70
     1
102
RTVSPropertyOp22
 70
     1
102
RTVSPropertyOp23
 70
     1
102
RTVSPropertyOp24
 70
     1
102
RTVSPropertyOp25
 70
     1
102
RTVSPropertyOp26
 70
     1
102
RTVSPropertyOp27
 70
     1
102
RTVSPropertyOp28
 70
     1
102
RTVSPropertyOp29
 70
     1
102
RTVSPropertyOp30
 70
     1
102
RTVSPropertyOp31
 70
     1
102
RTVSPropertyOp32
 70
     1
102
RTVSPropertyOp33
 70
     1
102
RTVSPropertyOp34
 70
     1
102
RTVSPropertyOp35
 70
     1
102
RTVSPropertyOp36
 70
     1
102
RTVSPropertyOp37
 70
     1
102
RTVSPropertyOp38
 70
     1
102
RTVSPropertyOp39
 70
     1
102
RTVSPropertyOp40
 70
     1
102
RTVSPropertyOp41
 70
     1
102
RTVSPropertyOp42
 70
     1
102
RTVSPropertyOp43
 70
     1
102
RTVSPropertyOp44
 70
     1
102
RTVSPropertyOp45
 70
     1
102
RTVSPropertyOp46
 70
     1
102
RTVSPropertyOp47
 70
     1
102
RTVSPropertyOp48
 70
     1
102
RTVSPropertyOp49
 70
     1
102
RTVSPropertyOp50
 70
     1
102
RTVSPropertyOp51
 70
     0
102
RTVSPropertyOp52
 70
     0
102
RTVSPropertyOp53
 70
     1
102
RTVSPropertyOp54
 70
     1
102
RTVSPropertyOp55
 70
     1
102
RTVSPropertyOp56
 70
     1
102
RTVSPropertyOp57
 70
     1
102
RTVSPost2010Prop28
280
     0
102
RTVSPost2010PropOp28
 70
     1
102
RTVSPost2010Prop29
280
     1
102
RTVSPost2010PropOp29
 70
     1
102
RTVSPost2010Prop30
280
     1
102
RTVSPost2010PropOp30
 70
     1
102
RTVSPost2010Prop31
280
     0
102
RTVSPost2010PropOp31
 70
     1
102
RTVSPost2010Prop32
280
     0
102
RTVSPost2010PropOp32
 70
     1
102
RTVSPost2010Prop33
280
     0
102
RTVSPost2010PropOp33
 70
     1
102
RTVSPost2010Prop34
280
     0
102
RTVSPost2010PropOp34
 70
     1
102
RTVSPost2010Prop35
280
     0
102
RTVSPost2010PropOp35
 70
     1
102
RTVSPost2010Prop36
280
     0
102
RTVSPost2010PropOp36
 70
     1
102
RTVSPost2010Prop37
 90
       50
102
RTVSPost2010PropOp37
 70
     1
102
RTVSPost2010Prop38
140
0.0
102
RTVSPost2010PropOp38
 70
     1
102
RTVSPost2010Prop39
140
1.0
102
RTVSPost2010PropOp39
 70
     1
102
RTVSPost2010Prop40
 90
        0
102
RTVSPost2010PropOp40
 70
     1
102
RTVSPost2010Prop41ColorIndex
 90
       18
102
RTVSPost2010Prop41ColorRGB
 90
        0
102
RTVSPost2010PropOp41
 70
     1
102
RTVSPost2010Prop42
 90
       50
102
RTVSPost2010PropOp42
 70
     1
102
RTVSPost2010Prop43
 90
        3
102
RTVSPost2010PropOp43
 70
     1
102
RTVSPost2010Prop44ColorIndex
 90
        5
102
RTVSPost2010Prop44ColorRGB
 90
      255
102
RTVSPost2010PropOp44
 70
     1
102
RTVSPost2010Prop45
280
     0
102
RTVSPost2010PropOp45
 70
     1
102
RTVSPost2010Prop46
 90
       50
102
RTVSPost2010PropOp46
 70
     1
102
RTVSPost2010Prop47
 90
       50
102
RTVSPost2010PropOp47
 70
     1
102
RTVSPost2010Prop48
 90
       50
102
RTVSPost2010PropOp48
 70
     1
102
RTVSPost2010Prop49
280
     0
102
RTVSPost2010PropOp49
 70
     1
102
RTVSPost2010Prop50
 90
       50
102
RTVSPost2010PropOp50
 70
     1
102
RTVSPost2010Prop51ColorIndex
 90
      256
102
RTVSPost2010Prop51ColorRGB
 90
-16777216
102
RTVSPost2010PropOp51
 70
     0
102
RTVSPost2010Prop52
140
1.0
102
RTVSPost2010PropOp52
 70
     0
102
RTVSPost2010Prop53
 90
        2
102
RTVSPost2010PropOp53
 70
     1
102
RTVSPost2010Prop54
  1
strokes_ogs.tif
102
RTVSPost2010PropOp54
 70
     1
102
RTVSPost2010Prop55
280
     0
102
RTVSPost2010PropOp55
 70
     1
102
RTVSPost2010Prop56
140
1.0
102
RTVSPost2010PropOp56
 70
     1
102
RTVSPost2010Prop57
140
1.0
102
RTVSPost2010PropOp57
 70
     1
  0
XRECORD
  5
35A
102
{ACAD_REACTORS
330
359
102
}
330
359
100
AcDbXrecord
280
     1
102
RTVSPropertyOp0
 70
     1
102
RTVSPropertyOp1
 70
     1
102
RTVSPropertyOp2
 70
     1
102
RTVSPropertyOp3
 70
     1
102
RTVSPropertyOp4
 70
     1
102
RTVSPropertyOp5
 70
     1
102
RTVSPropertyOp6
 70
     1
102
RTVSPropertyOp7
 70
     1
102
RTVSPropertyOp8
 70
     1
102
RTVSPropertyOp9
 70
     1
102
RTVSPropertyOp10
 70
     1
102
RTVSPropertyOp11
 70
     1
102
RTVSPropertyOp12
 70
     1
102
RTVSPropertyOp13
 70
     1
102
RTVSPropertyOp14
 70
     1
102
RTVSPropertyOp15
 70
     1
102
RTVSPropertyOp16
 70
     1
102
RTVSPropertyOp17
 70
     1
102
RTVSPropertyOp18
 70
     1
102
RTVSPropertyOp19
 70
     1
102
RTVSPropertyOp20
 70
     1
102
RTVSPropertyOp21
 70
     1
102
RTVSPropertyOp22
 70
     1
102
RTVSPropertyOp23
 70
     1
102
RTVSPropertyOp24
 70
     1
102
RTVSPropertyOp25
 70
     1
102
RTVSPropertyOp26
 70
     1
102
RTVSPropertyOp27
 70
     1
102
RTVSPropertyOp28
 70
     1
102
RTVSPropertyOp29
 70
     1
102
RTVSPropertyOp30
 70
     1
102
RTVSPropertyOp31
 70
     1
102
RTVSPropertyOp32
 70
     1
102
RTVSPropertyOp33
 70
     1
102
RTVSPropertyOp34
 70
     1
102
RTVSPropertyOp35
 70
     1
102
RTVSPropertyOp36
 70
     1
102
RTVSPropertyOp37
 70
     1
102
RTVSPropertyOp38
 70
     1
102
RTVSPropertyOp39
 70
     1
102
RTVSPropertyOp40
 70
     1
102
RTVSPropertyOp41
 70
     1
102
RTVSPropertyOp42
 70
     1
102
RTVSPropertyOp43
 70
     1
102
RTVSPropertyOp44
 70
     1
102
RTVSPropertyOp45
 70
     1
102
RTVSPropertyOp46
 70
     1
102
RTVSPropertyOp47
 70
     1
102
RTVSPropertyOp48
 70
     1
102
RTVSPropertyOp49
 70
     1
102
RTVSPropertyOp50
 70
     1
102
RTVSPropertyOp51
 70
     0
102
RTVSPropertyOp52
 70
     0
102
RTVSPropertyOp53
 70
     1
102
RTVSPropertyOp54
 70
     1
102
RTVSPropertyOp55
 70
     1
102
RTVSPropertyOp56
 70
     1
102
RTVSPropertyOp57
 70
     1
102
RTVSPost2010Prop28
280
     0
102
RTVSPost2010PropOp28
 70
     1
102
RTVSPost2010Prop29
280
     1
102
RTVSPost2010PropOp29
 70
     1
102
RTVSPost2010Prop30
280
     1
102
RTVSPost2010PropOp30
 70
     1
102
RTVSPost2010Prop31
280
     0
102
RTVSPost2010PropOp31
 70
     1
102
RTVSPost2010Prop32
280
     0
102
RTVSPost2010PropOp32
 70
     1
102
RTVSPost2010Prop33
280
     0
102
RTVSPost2010PropOp33
 70
     1
102
RTVSPost2010Prop34
280
     0
102
RTVSPost2010PropOp34
 70
     1
102
RTVSPost2010Prop35
280
     0
102
RTVSPost2010PropOp35
 70
     1
102
RTVSPost2010Prop36
280
     0
102
RTVSPost2010PropOp36
 70
     1
102
RTVSPost2010Prop37
 90
       50
102
RTVSPost2010PropOp37
 70
     1
102
RTVSPost2010Prop38
140
0.0
102
RTVSPost2010PropOp38
 70
     1
102
RTVSPost2010Prop39
140
1.0
102
RTVSPost2010PropOp39
 70
     1
102
RTVSPost2010Prop40
 90
        0
102
RTVSPost2010PropOp40
 70
     1
102
RTVSPost2010Prop41ColorIndex
 90
       18
102
RTVSPost2010Prop41ColorRGB
 90
        0
102
RTVSPost2010PropOp41
 70
     1
102
RTVSPost2010Prop42
 90
       50
102
RTVSPost2010PropOp42
 70
     1
102
RTVSPost2010Prop43
 90
        3
102
RTVSPost2010PropOp43
 70
     1
102
RTVSPost2010Prop44ColorIndex
 90
        5
102
RTVSPost2010Prop44ColorRGB
 90
      255
102
RTVSPost2010PropOp44
 70
     1
102
RTVSPost2010Prop45
280
     0
102
RTVSPost2010PropOp45
 70
     1
102
RTVSPost2010Prop46
 90
       50
102
RTVSPost2010PropOp46
 70
     1
102
RTVSPost2010Prop47
 90
       50
102
RTVSPost2010PropOp47
 70
     1
102
RTVSPost2010Prop48
 90
       50
102
RTVSPost2010PropOp48
 70
     1
102
RTVSPost2010Prop49
280
     0
102
RTVSPost2010PropOp49
 70
     1
102
RTVSPost2010Prop50
 90
       50
102
RTVSPost2010PropOp50
 70
     1
102
RTVSPost2010Prop51ColorIndex
 90
      256
102
RTVSPost2010Prop51ColorRGB
 90
-16777216
102
RTVSPost2010PropOp51
 70
     0
102
RTVSPost2010Prop52
140
1.0
102
RTVSPost2010PropOp52
 70
     0
102
RTVSPost2010Prop53
 90
        2
102
RTVSPost2010PropOp53
 70
     1
102
RTVSPost2010Prop54
  1
strokes_ogs.tif
102
RTVSPost2010PropOp54
 70
     1
102
RTVSPost2010Prop55
280
     0
102
RTVSPost2010PropOp55
 70
     1
102
RTVSPost2010Prop56
140
1.0
102
RTVSPost2010PropOp56
 70
     1
102
RTVSPost2010Prop57
140
1.0
102
RTVSPost2010PropOp57
 70
     1
  0
XRECORD
  5
35C
102
{ACAD_REACTORS
330
35B
102
}
330
35B
100
AcDbXrecord
280
     1
102
RTVSPropertyOp0
 70
     1
102
RTVSPropertyOp1
 70
     1
102
RTVSPropertyOp2
 70
     1
102
RTVSPropertyOp3
 70
     1
102
RTVSPropertyOp4
 70
     1
102
RTVSPropertyOp5
 70
     1
102
RTVSPropertyOp6
 70
     1
102
RTVSPropertyOp7
 70
     1
102
RTVSPropertyOp8
 70
     1
102
RTVSPropertyOp9
 70
     1
102
RTVSPropertyOp10
 70
     1
102
RTVSPropertyOp11
 70
     1
102
RTVSPropertyOp12
 70
     1
102
RTVSPropertyOp13
 70
     1
102
RTVSPropertyOp14
 70
     1
102
RTVSPropertyOp15
 70
     1
102
RTVSPropertyOp16
 70
     1
102
RTVSPropertyOp17
 70
     1
102
RTVSPropertyOp18
 70
     1
102
RTVSPropertyOp19
 70
     1
102
RTVSPropertyOp20
 70
     1
102
RTVSPropertyOp21
 70
     1
102
RTVSPropertyOp22
 70
     1
102
RTVSPropertyOp23
 70
     1
102
RTVSPropertyOp24
 70
     1
102
RTVSPropertyOp25
 70
     1
102
RTVSPropertyOp26
 70
     1
102
RTVSPropertyOp27
 70
     1
102
RTVSPropertyOp28
 70
     1
102
RTVSPropertyOp29
 70
     1
102
RTVSPropertyOp30
 70
     1
102
RTVSPropertyOp31
 70
     1
102
RTVSPropertyOp32
 70
     1
102
RTVSPropertyOp33
 70
     1
102
RTVSPropertyOp34
 70
     1
102
RTVSPropertyOp35
 70
     1
102
RTVSPropertyOp36
 70
     1
102
RTVSPropertyOp37
 70
     1
102
RTVSPropertyOp38
 70
     1
102
RTVSPropertyOp39
 70
     1
102
RTVSPropertyOp40
 70
     1
102
RTVSPropertyOp41
 70
     1
102
RTVSPropertyOp42
 70
     1
102
RTVSPropertyOp43
 70
     1
102
RTVSPropertyOp44
 70
     1
102
RTVSPropertyOp45
 70
     1
102
RTVSPropertyOp46
 70
     1
102
RTVSPropertyOp47
 70
     1
102
RTVSPropertyOp48
 70
     1
102
RTVSPropertyOp49
 70
     1
102
RTVSPropertyOp50
 70
     1
102
RTVSPropertyOp51
 70
     0
102
RTVSPropertyOp52
 70
     0
102
RTVSPropertyOp53
 70
     1
102
RTVSPropertyOp54
 70
     1
102
RTVSPropertyOp55
 70
     1
102
RTVSPropertyOp56
 70
     1
102
RTVSPropertyOp57
 70
     1
102
RTVSPost2010Prop28
280
     0
102
RTVSPost2010PropOp28
 70
     1
102
RTVSPost2010Prop29
280
     1
102
RTVSPost2010PropOp29
 70
     1
102
RTVSPost2010Prop30
280
     1
102
RTVSPost2010PropOp30
 70
     1
102
RTVSPost2010Prop31
280
     0
102
RTVSPost2010PropOp31
 70
     1
102
RTVSPost2010Prop32
280
     0
102
RTVSPost2010PropOp32
 70
     1
102
RTVSPost2010Prop33
280
     0
102
RTVSPost2010PropOp33
 70
     1
102
RTVSPost2010Prop34
280
     0
102
RTVSPost2010PropOp34
 70
     1
102
RTVSPost2010Prop35
280
     0
102
RTVSPost2010PropOp35
 70
     1
102
RTVSPost2010Prop36
280
     0
102
RTVSPost2010PropOp36
 70
     1
102
RTVSPost2010Prop37
 90
       50
102
RTVSPost2010PropOp37
 70
     1
102
RTVSPost2010Prop38
140
0.0
102
RTVSPost2010PropOp38
 70
     1
102
RTVSPost2010Prop39
140
1.0
102
RTVSPost2010PropOp39
 70
     1
102
RTVSPost2010Prop40
 90
        0
102
RTVSPost2010PropOp40
 70
     1
102
RTVSPost2010Prop41ColorIndex
 90
       18
102
RTVSPost2010Prop41ColorRGB
 90
        0
102
RTVSPost2010PropOp41
 70
     1
102
RTVSPost2010Prop42
 90
       50
102
RTVSPost2010PropOp42
 70
     1
102
RTVSPost2010Prop43
 90
        3
102
RTVSPost2010PropOp43
 70
     1
102
RTVSPost2010Prop44ColorIndex
 90
        5
102
RTVSPost2010Prop44ColorRGB
 90
      255
102
RTVSPost2010PropOp44
 70
     1
102
RTVSPost2010Prop45
280
     0
102
RTVSPost2010PropOp45
 70
     1
102
RTVSPost2010Prop46
 90
       50
102
RTVSPost2010PropOp46
 70
     1
102
RTVSPost2010Prop47
 90
       50
102
RTVSPost2010PropOp47
 70
     1
102
RTVSPost2010Prop48
 90
       50
102
RTVSPost2010PropOp48
 70
     1
102
RTVSPost2010Prop49
280
     0
102
RTVSPost2010PropOp49
 70
     1
102
RTVSPost2010Prop50
 90
       50
102
RTVSPost2010PropOp50
 70
     1
102
RTVSPost2010Prop51ColorIndex
 90
      256
102
RTVSPost2010Prop51ColorRGB
 90
-16777216
102
RTVSPost2010PropOp51
 70
     0
102
RTVSPost2010Prop52
140
1.0
102
RTVSPost2010PropOp52
 70
     0
102
RTVSPost2010Prop53
 90
        2
102
RTVSPost2010PropOp53
 70
     1
102
RTVSPost2010Prop54
  1
strokes_ogs.tif
102
RTVSPost2010PropOp54
 70
     1
102
RTVSPost2010Prop55
280
     0
102
RTVSPost2010PropOp55
 70
     1
102
RTVSPost2010Prop56
140
1.0
102
RTVSPost2010PropOp56
 70
     1
102
RTVSPost2010Prop57
140
1.0
102
RTVSPost2010PropOp57
 70
     1
  0
XRECORD
  5
36C
102
{ACAD_REACTORS
330
36B
102
}
330
36B
100
AcDbXrecord
280
     1
102
RTVSPropertyOp0
 70
     0
102
RTVSPropertyOp1
 70
     0
102
RTVSPropertyOp2
 70
     0
102
RTVSPropertyOp3
 70
     0
102
RTVSPropertyOp4
 70
     0
102
RTVSPropertyOp5
 70
     0
102
RTVSPropertyOp6
 70
     0
102
RTVSPropertyOp7
 70
     0
102
RTVSPropertyOp8
 70
     0
102
RTVSPropertyOp9
 70
     0
102
RTVSPropertyOp10
 70
     0
102
RTVSPropertyOp11
 70
     0
102
RTVSPropertyOp12
 70
     0
102
RTVSPropertyOp13
 70
     0
102
RTVSPropertyOp14
 70
     2
102
RTVSPropertyOp15
 70
     0
102
RTVSPropertyOp16
 70
     0
102
RTVSPropertyOp17
 70
     0
102
RTVSPropertyOp18
 70
     0
102
RTVSPropertyOp19
 70
     0
102
RTVSPropertyOp20
 70
     0
102
RTVSPropertyOp21
 70
     0
102
RTVSPropertyOp22
 70
     0
102
RTVSPropertyOp23
 70
     0
102
RTVSPropertyOp24
 70
     0
102
RTVSPropertyOp25
 70
     0
102
RTVSPropertyOp26
 70
     0
102
RTVSPropertyOp27
 70
     0
102
RTVSPropertyOp28
 70
     0
102
RTVSPropertyOp29
 70
     0
102
RTVSPropertyOp30
 70
     0
102
RTVSPropertyOp31
 70
     0
102
RTVSPropertyOp32
 70
     0
102
RTVSPropertyOp33
 70
     0
102
RTVSPropertyOp34
 70
     0
102
RTVSPropertyOp35
 70
     0
102
RTVSPropertyOp36
 70
     0
102
RTVSPropertyOp37
 70
     0
102
RTVSPropertyOp38
 70
     0
102
RTVSPropertyOp39
 70
     0
102
RTVSPropertyOp40
 70
     0
102
RTVSPropertyOp41
 70
     0
102
RTVSPropertyOp42
 70
     0
102
RTVSPropertyOp43
 70
     0
102
RTVSPropertyOp44
 70
     0
102
RTVSPropertyOp45
 70
     0
102
RTVSPropertyOp46
 70
     0
102
RTVSPropertyOp47
 70
     0
102
RTVSPropertyOp48
 70
     0
102
RTVSPropertyOp49
 70
     0
102
RTVSPropertyOp50
 70
     0
102
RTVSPropertyOp51
 70
     0
102
RTVSPropertyOp52
 70
     0
102
RTVSPropertyOp53
 70
     0
102
RTVSPropertyOp54
 70
     0
102
RTVSPropertyOp55
 70
     0
102
RTVSPropertyOp56
 70
     0
102
RTVSPropertyOp57
 70
     0
102
RTVSPost2010Prop28
280
     0
102
RTVSPost2010PropOp28
 70
     0
102
RTVSPost2010Prop29
280
     1
102
RTVSPost2010PropOp29
 70
     0
102
RTVSPost2010Prop30
280
     1
102
RTVSPost2010PropOp30
 70
     0
102
RTVSPost2010Prop31
280
     0
102
RTVSPost2010PropOp31
 70
     0
102
RTVSPost2010Prop32
280
     0
102
RTVSPost2010PropOp32
 70
     0
102
RTVSPost2010Prop33
280
     0
102
RTVSPost2010PropOp33
 70
     0
102
RTVSPost2010Prop34
280
     0
102
RTVSPost2010PropOp34
 70
     0
102
RTVSPost2010Prop35
280
     0
102
RTVSPost2010PropOp35
 70
     0
102
RTVSPost2010Prop36
280
     0
102
RTVSPost2010PropOp36
 70
     0
102
RTVSPost2010Prop37
 90
       50
102
RTVSPost2010PropOp37
 70
     0
102
RTVSPost2010Prop38
140
0.0
102
RTVSPost2010PropOp38
 70
     0
102
RTVSPost2010Prop39
140
1.0
102
RTVSPost2010PropOp39
 70
     0
102
RTVSPost2010Prop40
 90
        0
102
RTVSPost2010PropOp40
 70
     0
102
RTVSPost2010Prop41ColorIndex
 90
       18
102
RTVSPost2010Prop41ColorRGB
 90
        0
102
RTVSPost2010PropOp41
 70
     0
102
RTVSPost2010Prop42
 90
       50
102
RTVSPost2010PropOp42
 70
     0
102
RTVSPost2010Prop43
 90
        3
102
RTVSPost2010PropOp43
 70
     0
102
RTVSPost2010Prop44ColorIndex
 90
        5
102
RTVSPost2010Prop44ColorRGB
 90
      255
102
RTVSPost2010PropOp44
 70
     0
102
RTVSPost2010Prop45
280
     0
102
RTVSPost2010PropOp45
 70
     0
102
RTVSPost2010Prop46
 90
       50
102
RTVSPost2010PropOp46
 70
     0
102
RTVSPost2010Prop47
 90
       50
102
RTVSPost2010PropOp47
 70
     0
102
RTVSPost2010Prop48
 90
       50
102
RTVSPost2010PropOp48
 70
     0
102
RTVSPost2010Prop49
280
     0
102
RTVSPost2010PropOp49
 70
     0
102
RTVSPost2010Prop50
 90
       50
102
RTVSPost2010PropOp50
 70
     0
102
RTVSPost2010Prop51ColorIndex
 90
      256
102
RTVSPost2010Prop51ColorRGB
 90
-16777216
102
RTVSPost2010PropOp51
 70
     0
102
RTVSPost2010Prop52
140
1.0
102
RTVSPost2010PropOp52
 70
     0
102
RTVSPost2010Prop53
 90
        2
102
RTVSPost2010PropOp53
 70
     0
102
RTVSPost2010Prop54
  1
strokes_ogs.tif
102
RTVSPost2010PropOp54
 70
     0
102
RTVSPost2010Prop55
280
     0
102
RTVSPost2010PropOp55
 70
     0
102
RTVSPost2010Prop56
140
1.0
102
RTVSPost2010PropOp56
 70
     0
102
RTVSPost2010Prop57
140
1.0
102
RTVSPost2010PropOp57
 70
     0
  0
XRECORD
  5
364
102
{ACAD_REACTORS
330
363
102
}
330
363
100
AcDbXrecord
280
     1
102
RTVSPropertyOp0
 70
     1
102
RTVSPropertyOp1
 70
     1
102
RTVSPropertyOp2
 70
     1
102
RTVSPropertyOp3
 70
     1
102
RTVSPropertyOp4
 70
     1
102
RTVSPropertyOp5
 70
     1
102
RTVSPropertyOp6
 70
     1
102
RTVSPropertyOp7
 70
     1
102
RTVSPropertyOp8
 70
     1
102
RTVSPropertyOp9
 70
     1
102
RTVSPropertyOp10
 70
     1
102
RTVSPropertyOp11
 70
     1
102
RTVSPropertyOp12
 70
     1
102
RTVSPropertyOp13
 70
     1
102
RTVSPropertyOp14
 70
     1
102
RTVSPropertyOp15
 70
     1
102
RTVSPropertyOp16
 70
     1
102
RTVSPropertyOp17
 70
     1
102
RTVSPropertyOp18
 70
     1
102
RTVSPropertyOp19
 70
     1
102
RTVSPropertyOp20
 70
     1
102
RTVSPropertyOp21
 70
     1
102
RTVSPropertyOp22
 70
     1
102
RTVSPropertyOp23
 70
     1
102
RTVSPropertyOp24
 70
     1
102
RTVSPropertyOp25
 70
     1
102
RTVSPropertyOp26
 70
     1
102
RTVSPropertyOp27
 70
     1
102
RTVSPropertyOp28
 70
     1
102
RTVSPropertyOp29
 70
     1
102
RTVSPropertyOp30
 70
     1
102
RTVSPropertyOp31
 70
     1
102
RTVSPropertyOp32
 70
     1
102
RTVSPropertyOp33
 70
     1
102
RTVSPropertyOp34
 70
     1
102
RTVSPropertyOp35
 70
     1
102
RTVSPropertyOp36
 70
     1
102
RTVSPropertyOp37
 70
     1
102
RTVSPropertyOp38
 70
     1
102
RTVSPropertyOp39
 70
     1
102
RTVSPropertyOp40
 70
     1
102
RTVSPropertyOp41
 70
     1
102
RTVSPropertyOp42
 70
     1
102
RTVSPropertyOp43
 70
     1
102
RTVSPropertyOp44
 70
     1
102
RTVSPropertyOp45
 70
     1
102
RTVSPropertyOp46
 70
     1
102
RTVSPropertyOp47
 70
     1
102
RTVSPropertyOp48
 70
     1
102
RTVSPropertyOp49
 70
     1
102
RTVSPropertyOp50
 70
     1
102
RTVSPropertyOp51
 70
     0
102
RTVSPropertyOp52
 70
     0
102
RTVSPropertyOp53
 70
     1
102
RTVSPropertyOp54
 70
     1
102
RTVSPropertyOp55
 70
     1
102
RTVSPropertyOp56
 70
     1
102
RTVSPropertyOp57
 70
     1
102
RTVSPost2010Prop28
280
     0
102
RTVSPost2010PropOp28
 70
     1
102
RTVSPost2010Prop29
280
     1
102
RTVSPost2010PropOp29
 70
     1
102
RTVSPost2010Prop30
280
     1
102
RTVSPost2010PropOp30
 70
     1
102
RTVSPost2010Prop31
280
     0
102
RTVSPost2010PropOp31
 70
     1
102
RTVSPost2010Prop32
280
     0
102
RTVSPost2010PropOp32
 70
     1
102
RTVSPost2010Prop33
280
     0
102
RTVSPost2010PropOp33
 70
     1
102
RTVSPost2010Prop34
280
     0
102
RTVSPost2010PropOp34
 70
     1
102
RTVSPost2010Prop35
280
     0
102
RTVSPost2010PropOp35
 70
     1
102
RTVSPost2010Prop36
280
     0
102
RTVSPost2010PropOp36
 70
     1
102
RTVSPost2010Prop37
 90
       50
102
RTVSPost2010PropOp37
 70
     1
102
RTVSPost2010Prop38
140
0.0
102
RTVSPost2010PropOp38
 70
     1
102
RTVSPost2010Prop39
140
1.0
102
RTVSPost2010PropOp39
 70
     1
102
RTVSPost2010Prop40
 90
        0
102
RTVSPost2010PropOp40
 70
     1
102
RTVSPost2010Prop41ColorIndex
 90
       18
102
RTVSPost2010Prop41ColorRGB
 90
        0
102
RTVSPost2010PropOp41
 70
     1
102
RTVSPost2010Prop42
 90
       50
102
RTVSPost2010PropOp42
 70
     1
102
RTVSPost2010Prop43
 90
        3
102
RTVSPost2010PropOp43
 70
     1
102
RTVSPost2010Prop44ColorIndex
 90
        5
102
RTVSPost2010Prop44ColorRGB
 90
      255
102
RTVSPost2010PropOp44
 70
     1
102
RTVSPost2010Prop45
280
     0
102
RTVSPost2010PropOp45
 70
     1
102
RTVSPost2010Prop46
 90
       50
102
RTVSPost2010PropOp46
 70
     1
102
RTVSPost2010Prop47
 90
       50
102
RTVSPost2010PropOp47
 70
     1
102
RTVSPost2010Prop48
 90
       50
102
RTVSPost2010PropOp48
 70
     1
102
RTVSPost2010Prop49
280
     0
102
RTVSPost2010PropOp49
 70
     1
102
RTVSPost2010Prop50
 90
       50
102
RTVSPost2010PropOp50
 70
     1
102
RTVSPost2010Prop51ColorIndex
 90
      256
102
RTVSPost2010Prop51ColorRGB
 90
-16777216
102
RTVSPost2010PropOp51
 70
     0
102
RTVSPost2010Prop52
140
1.0
102
RTVSPost2010PropOp52
 70
     0
102
RTVSPost2010Prop53
 90
        2
102
RTVSPost2010PropOp53
 70
     1
102
RTVSPost2010Prop54
  1
strokes_ogs.tif
102
RTVSPost2010PropOp54
 70
     1
102
RTVSPost2010Prop55
280
     0
102
RTVSPost2010PropOp55
 70
     1
102
RTVSPost2010Prop56
140
1.0
102
RTVSPost2010PropOp56
 70
     1
102
RTVSPost2010Prop57
140
1.0
102
RTVSPost2010PropOp57
 70
     1
  0
XRECORD
  5
348
102
{ACAD_REACTORS
330
347
102
}
330
347
100
AcDbXrecord
280
     1
102
RTVSPropertyOp0
 70
     1
102
RTVSPropertyOp1
 70
     1
102
RTVSPropertyOp2
 70
     1
102
RTVSPropertyOp3
 70
     1
102
RTVSPropertyOp4
 70
     1
102
RTVSPropertyOp5
 70
     1
102
RTVSPropertyOp6
 70
     1
102
RTVSPropertyOp7
 70
     1
102
RTVSPropertyOp8
 70
     1
102
RTVSPropertyOp9
 70
     1
102
RTVSPropertyOp10
 70
     1
102
RTVSPropertyOp11
 70
     1
102
RTVSPropertyOp12
 70
     1
102
RTVSPropertyOp13
 70
     1
102
RTVSPropertyOp14
 70
     1
102
RTVSPropertyOp15
 70
     1
102
RTVSPropertyOp16
 70
     1
102
RTVSPropertyOp17
 70
     1
102
RTVSPropertyOp18
 70
     1
102
RTVSPropertyOp19
 70
     1
102
RTVSPropertyOp20
 70
     1
102
RTVSPropertyOp21
 70
     1
102
RTVSPropertyOp22
 70
     1
102
RTVSPropertyOp23
 70
     1
102
RTVSPropertyOp24
 70
     1
102
RTVSPropertyOp25
 70
     1
102
RTVSPropertyOp26
 70
     1
102
RTVSPropertyOp27
 70
     1
102
RTVSPropertyOp28
 70
     1
102
RTVSPropertyOp29
 70
     1
102
RTVSPropertyOp30
 70
     1
102
RTVSPropertyOp31
 70
     1
102
RTVSPropertyOp32
 70
     1
102
RTVSPropertyOp33
 70
     1
102
RTVSPropertyOp34
 70
     1
102
RTVSPropertyOp35
 70
     1
102
RTVSPropertyOp36
 70
     1
102
RTVSPropertyOp37
 70
     1
102
RTVSPropertyOp38
 70
     1
102
RTVSPropertyOp39
 70
     1
102
RTVSPropertyOp40
 70
     1
102
RTVSPropertyOp41
 70
     1
102
RTVSPropertyOp42
 70
     1
102
RTVSPropertyOp43
 70
     1
102
RTVSPropertyOp44
 70
     1
102
RTVSPropertyOp45
 70
     1
102
RTVSPropertyOp46
 70
     1
102
RTVSPropertyOp47
 70
     1
102
RTVSPropertyOp48
 70
     1
102
RTVSPropertyOp49
 70
     1
102
RTVSPropertyOp50
 70
     1
102
RTVSPropertyOp51
 70
     0
102
RTVSPropertyOp52
 70
     0
102
RTVSPropertyOp53
 70
     1
102
RTVSPropertyOp54
 70
     1
102
RTVSPropertyOp55
 70
     1
102
RTVSPropertyOp56
 70
     1
102
RTVSPropertyOp57
 70
     1
102
RTVSPost2010Prop28
280
     0
102
RTVSPost2010PropOp28
 70
     1
102
RTVSPost2010Prop29
280
     1
102
RTVSPost2010PropOp29
 70
     1
102
RTVSPost2010Prop30
280
     1
102
RTVSPost2010PropOp30
 70
     1
102
RTVSPost2010Prop31
280
     0
102
RTVSPost2010PropOp31
 70
     1
102
RTVSPost2010Prop32
280
     0
102
RTVSPost2010PropOp32
 70
     1
102
RTVSPost2010Prop33
280
     0
102
RTVSPost2010PropOp33
 70
     1
102
RTVSPost2010Prop34
280
     0
102
RTVSPost2010PropOp34
 70
     1
102
RTVSPost2010Prop35
280
     0
102
RTVSPost2010PropOp35
 70
     1
102
RTVSPost2010Prop36
280
     0
102
RTVSPost2010PropOp36
 70
     1
102
RTVSPost2010Prop37
 90
       50
102
RTVSPost2010PropOp37
 70
     1
102
RTVSPost2010Prop38
140
0.0
102
RTVSPost2010PropOp38
 70
     1
102
RTVSPost2010Prop39
140
1.0
102
RTVSPost2010PropOp39
 70
     1
102
RTVSPost2010Prop40
 90
        0
102
RTVSPost2010PropOp40
 70
     1
102
RTVSPost2010Prop41ColorIndex
 90
       18
102
RTVSPost2010Prop41ColorRGB
 90
        0
102
RTVSPost2010PropOp41
 70
     1
102
RTVSPost2010Prop42
 90
       50
102
RTVSPost2010PropOp42
 70
     1
102
RTVSPost2010Prop43
 90
        3
102
RTVSPost2010PropOp43
 70
     1
102
RTVSPost2010Prop44ColorIndex
 90
        5
102
RTVSPost2010Prop44ColorRGB
 90
      255
102
RTVSPost2010PropOp44
 70
     1
102
RTVSPost2010Prop45
280
     0
102
RTVSPost2010PropOp45
 70
     1
102
RTVSPost2010Prop46
 90
       50
102
RTVSPost2010PropOp46
 70
     1
102
RTVSPost2010Prop47
 90
       50
102
RTVSPost2010PropOp47
 70
     1
102
RTVSPost2010Prop48
 90
       50
102
RTVSPost2010PropOp48
 70
     1
102
RTVSPost2010Prop49
280
     0
102
RTVSPost2010PropOp49
 70
     1
102
RTVSPost2010Prop50
 90
       50
102
RTVSPost2010PropOp50
 70
     1
102
RTVSPost2010Prop51ColorIndex
 90
      256
102
RTVSPost2010Prop51ColorRGB
 90
-16777216
102
RTVSPost2010PropOp51
 70
     0
102
RTVSPost2010Prop52
140
1.0
102
RTVSPost2010PropOp52
 70
     0
102
RTVSPost2010Prop53
 90
        2
102
RTVSPost2010PropOp53
 70
     1
102
RTVSPost2010Prop54
  1
strokes_ogs.tif
102
RTVSPost2010PropOp54
 70
     1
102
RTVSPost2010Prop55
280
     0
102
RTVSPost2010PropOp55
 70
     1
102
RTVSPost2010Prop56
140
1.0
102
RTVSPost2010PropOp56
 70
     1
102
RTVSPost2010Prop57
140
1.0
102
RTVSPost2010PropOp57
 70
     1
  0
XRECORD
  5
34A
102
{ACAD_REACTORS
330
349
102
}
330
349
100
AcDbXrecord
280
     1
102
RTVSPropertyOp0
 70
     1
102
RTVSPropertyOp1
 70
     1
102
RTVSPropertyOp2
 70
     1
102
RTVSPropertyOp3
 70
     1
102
RTVSPropertyOp4
 70
     1
102
RTVSPropertyOp5
 70
     1
102
RTVSPropertyOp6
 70
     1
102
RTVSPropertyOp7
 70
     1
102
RTVSPropertyOp8
 70
     1
102
RTVSPropertyOp9
 70
     1
102
RTVSPropertyOp10
 70
     1
102
RTVSPropertyOp11
 70
     1
102
RTVSPropertyOp12
 70
     1
102
RTVSPropertyOp13
 70
     1
102
RTVSPropertyOp14
 70
     1
102
RTVSPropertyOp15
 70
     1
102
RTVSPropertyOp16
 70
     1
102
RTVSPropertyOp17
 70
     1
102
RTVSPropertyOp18
 70
     1
102
RTVSPropertyOp19
 70
     1
102
RTVSPropertyOp20
 70
     1
102
RTVSPropertyOp21
 70
     1
102
RTVSPropertyOp22
 70
     1
102
RTVSPropertyOp23
 70
     1
102
RTVSPropertyOp24
 70
     1
102
RTVSPropertyOp25
 70
     1
102
RTVSPropertyOp26
 70
     1
102
RTVSPropertyOp27
 70
     1
102
RTVSPropertyOp28
 70
     1
102
RTVSPropertyOp29
 70
     1
102
RTVSPropertyOp30
 70
     1
102
RTVSPropertyOp31
 70
     1
102
RTVSPropertyOp32
 70
     1
102
RTVSPropertyOp33
 70
     1
102
RTVSPropertyOp34
 70
     1
102
RTVSPropertyOp35
 70
     1
102
RTVSPropertyOp36
 70
     1
102
RTVSPropertyOp37
 70
     1
102
RTVSPropertyOp38
 70
     1
102
RTVSPropertyOp39
 70
     1
102
RTVSPropertyOp40
 70
     1
102
RTVSPropertyOp41
 70
     1
102
RTVSPropertyOp42
 70
     1
102
RTVSPropertyOp43
 70
     1
102
RTVSPropertyOp44
 70
     1
102
RTVSPropertyOp45
 70
     1
102
RTVSPropertyOp46
 70
     1
102
RTVSPropertyOp47
 70
     1
102
RTVSPropertyOp48
 70
     1
102
RTVSPropertyOp49
 70
     1
102
RTVSPropertyOp50
 70
     1
102
RTVSPropertyOp51
 70
     0
102
RTVSPropertyOp52
 70
     0
102
RTVSPropertyOp53
 70
     1
102
RTVSPropertyOp54
 70
     1
102
RTVSPropertyOp55
 70
     1
102
RTVSPropertyOp56
 70
     1
102
RTVSPropertyOp57
 70
     1
102
RTVSPost2010Prop28
280
     0
102
RTVSPost2010PropOp28
 70
     1
102
RTVSPost2010Prop29
280
     1
102
RTVSPost2010PropOp29
 70
     1
102
RTVSPost2010Prop30
280
     1
102
RTVSPost2010PropOp30
 70
     1
102
RTVSPost2010Prop31
280
     0
102
RTVSPost2010PropOp31
 70
     1
102
RTVSPost2010Prop32
280
     0
102
RTVSPost2010PropOp32
 70
     1
102
RTVSPost2010Prop33
280
     0
102
RTVSPost2010PropOp33
 70
     1
102
RTVSPost2010Prop34
280
     0
102
RTVSPost2010PropOp34
 70
     1
102
RTVSPost2010Prop35
280
     0
102
RTVSPost2010PropOp35
 70
     1
102
RTVSPost2010Prop36
280
     0
102
RTVSPost2010PropOp36
 70
     1
102
RTVSPost2010Prop37
 90
       50
102
RTVSPost2010PropOp37
 70
     1
102
RTVSPost2010Prop38
140
0.0
102
RTVSPost2010PropOp38
 70
     1
102
RTVSPost2010Prop39
140
1.0
102
RTVSPost2010PropOp39
 70
     1
102
RTVSPost2010Prop40
 90
        0
102
RTVSPost2010PropOp40
 70
     1
102
RTVSPost2010Prop41ColorIndex
 90
       18
102
RTVSPost2010Prop41ColorRGB
 90
        0
102
RTVSPost2010PropOp41
 70
     1
102
RTVSPost2010Prop42
 90
       50
102
RTVSPost2010PropOp42
 70
     1
102
RTVSPost2010Prop43
 90
        3
102
RTVSPost2010PropOp43
 70
     1
102
RTVSPost2010Prop44ColorIndex
 90
        5
102
RTVSPost2010Prop44ColorRGB
 90
      255
102
RTVSPost2010PropOp44
 70
     1
102
RTVSPost2010Prop45
280
     0
102
RTVSPost2010PropOp45
 70
     1
102
RTVSPost2010Prop46
 90
       50
102
RTVSPost2010PropOp46
 70
     1
102
RTVSPost2010Prop47
 90
       50
102
RTVSPost2010PropOp47
 70
     1
102
RTVSPost2010Prop48
 90
       50
102
RTVSPost2010PropOp48
 70
     1
102
RTVSPost2010Prop49
280
     0
102
RTVSPost2010PropOp49
 70
     1
102
RTVSPost2010Prop50
 90
       50
102
RTVSPost2010PropOp50
 70
     1
102
RTVSPost2010Prop51ColorIndex
 90
      256
102
RTVSPost2010Prop51ColorRGB
 90
-16777216
102
RTVSPost2010PropOp51
 70
     0
102
RTVSPost2010Prop52
140
1.0
102
RTVSPost2010PropOp52
 70
     0
102
RTVSPost2010Prop53
 90
        2
102
RTVSPost2010PropOp53
 70
     1
102
RTVSPost2010Prop54
  1
strokes_ogs.tif
102
RTVSPost2010PropOp54
 70
     1
102
RTVSPost2010Prop55
280
     0
102
RTVSPost2010PropOp55
 70
     1
102
RTVSPost2010Prop56
140
1.0
102
RTVSPost2010PropOp56
 70
     1
102
RTVSPost2010Prop57
140
1.0
102
RTVSPost2010PropOp57
 70
     1
  0
XRECORD
  5
34C
102
{ACAD_REACTORS
330
34B
102
}
330
34B
100
AcDbXrecord
280
     1
102
RTVSPropertyOp0
 70
     1
102
RTVSPropertyOp1
 70
     1
102
RTVSPropertyOp2
 70
     1
102
RTVSPropertyOp3
 70
     1
102
RTVSPropertyOp4
 70
     1
102
RTVSPropertyOp5
 70
     1
102
RTVSPropertyOp6
 70
     1
102
RTVSPropertyOp7
 70
     1
102
RTVSPropertyOp8
 70
     1
102
RTVSPropertyOp9
 70
     1
102
RTVSPropertyOp10
 70
     1
102
RTVSPropertyOp11
 70
     1
102
RTVSPropertyOp12
 70
     1
102
RTVSPropertyOp13
 70
     1
102
RTVSPropertyOp14
 70
     1
102
RTVSPropertyOp15
 70
     1
102
RTVSPropertyOp16
 70
     1
102
RTVSPropertyOp17
 70
     1
102
RTVSPropertyOp18
 70
     1
102
RTVSPropertyOp19
 70
     1
102
RTVSPropertyOp20
 70
     1
102
RTVSPropertyOp21
 70
     1
102
RTVSPropertyOp22
 70
     1
102
RTVSPropertyOp23
 70
     1
102
RTVSPropertyOp24
 70
     1
102
RTVSPropertyOp25
 70
     1
102
RTVSPropertyOp26
 70
     1
102
RTVSPropertyOp27
 70
     1
102
RTVSPropertyOp28
 70
     1
102
RTVSPropertyOp29
 70
     1
102
RTVSPropertyOp30
 70
     1
102
RTVSPropertyOp31
 70
     1
102
RTVSPropertyOp32
 70
     1
102
RTVSPropertyOp33
 70
     1
102
RTVSPropertyOp34
 70
     1
102
RTVSPropertyOp35
 70
     1
102
RTVSPropertyOp36
 70
     1
102
RTVSPropertyOp37
 70
     1
102
RTVSPropertyOp38
 70
     1
102
RTVSPropertyOp39
 70
     1
102
RTVSPropertyOp40
 70
     1
102
RTVSPropertyOp41
 70
     1
102
RTVSPropertyOp42
 70
     1
102
RTVSPropertyOp43
 70
     1
102
RTVSPropertyOp44
 70
     1
102
RTVSPropertyOp45
 70
     1
102
RTVSPropertyOp46
 70
     1
102
RTVSPropertyOp47
 70
     1
102
RTVSPropertyOp48
 70
     1
102
RTVSPropertyOp49
 70
     1
102
RTVSPropertyOp50
 70
     1
102
RTVSPropertyOp51
 70
     0
102
RTVSPropertyOp52
 70
     0
102
RTVSPropertyOp53
 70
     1
102
RTVSPropertyOp54
 70
     1
102
RTVSPropertyOp55
 70
     1
102
RTVSPropertyOp56
 70
     1
102
RTVSPropertyOp57
 70
     1
102
RTVSPost2010Prop28
280
     0
102
RTVSPost2010PropOp28
 70
     1
102
RTVSPost2010Prop29
280
     1
102
RTVSPost2010PropOp29
 70
     1
102
RTVSPost2010Prop30
280
     1
102
RTVSPost2010PropOp30
 70
     1
102
RTVSPost2010Prop31
280
     0
102
RTVSPost2010PropOp31
 70
     1
102
RTVSPost2010Prop32
280
     0
102
RTVSPost2010PropOp32
 70
     1
102
RTVSPost2010Prop33
280
     0
102
RTVSPost2010PropOp33
 70
     1
102
RTVSPost2010Prop34
280
     0
102
RTVSPost2010PropOp34
 70
     1
102
RTVSPost2010Prop35
280
     0
102
RTVSPost2010PropOp35
 70
     1
102
RTVSPost2010Prop36
280
     0
102
RTVSPost2010PropOp36
 70
     1
102
RTVSPost2010Prop37
 90
       50
102
RTVSPost2010PropOp37
 70
     1
102
RTVSPost2010Prop38
140
0.0
102
RTVSPost2010PropOp38
 70
     1
102
RTVSPost2010Prop39
140
1.0
102
RTVSPost2010PropOp39
 70
     1
102
RTVSPost2010Prop40
 90
        0
102
RTVSPost2010PropOp40
 70
     1
102
RTVSPost2010Prop41ColorIndex
 90
       18
102
RTVSPost2010Prop41ColorRGB
 90
        0
102
RTVSPost2010PropOp41
 70
     1
102
RTVSPost2010Prop42
 90
       50
102
RTVSPost2010PropOp42
 70
     1
102
RTVSPost2010Prop43
 90
        3
102
RTVSPost2010PropOp43
 70
     1
102
RTVSPost2010Prop44ColorIndex
 90
        5
102
RTVSPost2010Prop44ColorRGB
 90
      255
102
RTVSPost2010PropOp44
 70
     1
102
RTVSPost2010Prop45
280
     0
102
RTVSPost2010PropOp45
 70
     1
102
RTVSPost2010Prop46
 90
       50
102
RTVSPost2010PropOp46
 70
     1
102
RTVSPost2010Prop47
 90
       50
102
RTVSPost2010PropOp47
 70
     1
102
RTVSPost2010Prop48
 90
       50
102
RTVSPost2010PropOp48
 70
     1
102
RTVSPost2010Prop49
280
     0
102
RTVSPost2010PropOp49
 70
     1
102
RTVSPost2010Prop50
 90
       50
102
RTVSPost2010PropOp50
 70
     1
102
RTVSPost2010Prop51ColorIndex
 90
      256
102
RTVSPost2010Prop51ColorRGB
 90
-16777216
102
RTVSPost2010PropOp51
 70
     0
102
RTVSPost2010Prop52
140
1.0
102
RTVSPost2010PropOp52
 70
     0
102
RTVSPost2010Prop53
 90
        2
102
RTVSPost2010PropOp53
 70
     1
102
RTVSPost2010Prop54
  1
strokes_ogs.tif
102
RTVSPost2010PropOp54
 70
     1
102
RTVSPost2010Prop55
280
     0
102
RTVSPost2010PropOp55
 70
     1
102
RTVSPost2010Prop56
140
1.0
102
RTVSPost2010PropOp56
 70
     1
102
RTVSPost2010Prop57
140
1.0
102
RTVSPost2010PropOp57
 70
     1
  0
XRECORD
  5
34E
102
{ACAD_REACTORS
330
34D
102
}
330
34D
100
AcDbXrecord
280
     1
102
RTVSPropertyOp0
 70
     1
102
RTVSPropertyOp1
 70
     1
102
RTVSPropertyOp2
 70
     1
102
RTVSPropertyOp3
 70
     1
102
RTVSPropertyOp4
 70
     1
102
RTVSPropertyOp5
 70
     1
102
RTVSPropertyOp6
 70
     1
102
RTVSPropertyOp7
 70
     1
102
RTVSPropertyOp8
 70
     1
102
RTVSPropertyOp9
 70
     1
102
RTVSPropertyOp10
 70
     1
102
RTVSPropertyOp11
 70
     1
102
RTVSPropertyOp12
 70
     1
102
RTVSPropertyOp13
 70
     1
102
RTVSPropertyOp14
 70
     1
102
RTVSPropertyOp15
 70
     1
102
RTVSPropertyOp16
 70
     1
102
RTVSPropertyOp17
 70
     1
102
RTVSPropertyOp18
 70
     1
102
RTVSPropertyOp19
 70
     1
102
RTVSPropertyOp20
 70
     1
102
RTVSPropertyOp21
 70
     1
102
RTVSPropertyOp22
 70
     1
102
RTVSPropertyOp23
 70
     1
102
RTVSPropertyOp24
 70
     1
102
RTVSPropertyOp25
 70
     1
102
RTVSPropertyOp26
 70
     1
102
RTVSPropertyOp27
 70
     1
102
RTVSPropertyOp28
 70
     1
102
RTVSPropertyOp29
 70
     1
102
RTVSPropertyOp30
 70
     1
102
RTVSPropertyOp31
 70
     1
102
RTVSPropertyOp32
 70
     1
102
RTVSPropertyOp33
 70
     1
102
RTVSPropertyOp34
 70
     1
102
RTVSPropertyOp35
 70
     1
102
RTVSPropertyOp36
 70
     1
102
RTVSPropertyOp37
 70
     1
102
RTVSPropertyOp38
 70
     1
102
RTVSPropertyOp39
 70
     1
102
RTVSPropertyOp40
 70
     1
102
RTVSPropertyOp41
 70
     1
102
RTVSPropertyOp42
 70
     1
102
RTVSPropertyOp43
 70
     1
102
RTVSPropertyOp44
 70
     1
102
RTVSPropertyOp45
 70
     1
102
RTVSPropertyOp46
 70
     1
102
RTVSPropertyOp47
 70
     1
102
RTVSPropertyOp48
 70
     1
102
RTVSPropertyOp49
 70
     1
102
RTVSPropertyOp50
 70
     1
102
RTVSPropertyOp51
 70
     0
102
RTVSPropertyOp52
 70
     0
102
RTVSPropertyOp53
 70
     1
102
RTVSPropertyOp54
 70
     1
102
RTVSPropertyOp55
 70
     1
102
RTVSPropertyOp56
 70
     1
102
RTVSPropertyOp57
 70
     1
102
RTVSPost2010Prop28
280
     0
102
RTVSPost2010PropOp28
 70
     1
102
RTVSPost2010Prop29
280
     1
102
RTVSPost2010PropOp29
 70
     1
102
RTVSPost2010Prop30
280
     1
102
RTVSPost2010PropOp30
 70
     1
102
RTVSPost2010Prop31
280
     0
102
RTVSPost2010PropOp31
 70
     1
102
RTVSPost2010Prop32
280
     0
102
RTVSPost2010PropOp32
 70
     1
102
RTVSPost2010Prop33
280
     0
102
RTVSPost2010PropOp33
 70
     1
102
RTVSPost2010Prop34
280
     0
102
RTVSPost2010PropOp34
 70
     1
102
RTVSPost2010Prop35
280
     0
102
RTVSPost2010PropOp35
 70
     1
102
RTVSPost2010Prop36
280
     0
102
RTVSPost2010PropOp36
 70
     1
102
RTVSPost2010Prop37
 90
       50
102
RTVSPost2010PropOp37
 70
     1
102
RTVSPost2010Prop38
140
0.0
102
RTVSPost2010PropOp38
 70
     1
102
RTVSPost2010Prop39
140
1.0
102
RTVSPost2010PropOp39
 70
     1
102
RTVSPost2010Prop40
 90
        0
102
RTVSPost2010PropOp40
 70
     1
102
RTVSPost2010Prop41ColorIndex
 90
       18
102
RTVSPost2010Prop41ColorRGB
 90
        0
102
RTVSPost2010PropOp41
 70
     1
102
RTVSPost2010Prop42
 90
       50
102
RTVSPost2010PropOp42
 70
     1
102
RTVSPost2010Prop43
 90
        3
102
RTVSPost2010PropOp43
 70
     1
102
RTVSPost2010Prop44ColorIndex
 90
        5
102
RTVSPost2010Prop44ColorRGB
 90
      255
102
RTVSPost2010PropOp44
 70
     1
102
RTVSPost2010Prop45
280
     0
102
RTVSPost2010PropOp45
 70
     1
102
RTVSPost2010Prop46
 90
       50
102
RTVSPost2010PropOp46
 70
     1
102
RTVSPost2010Prop47
 90
       50
102
RTVSPost2010PropOp47
 70
     1
102
RTVSPost2010Prop48
 90
       50
102
RTVSPost2010PropOp48
 70
     1
102
RTVSPost2010Prop49
280
     0
102
RTVSPost2010PropOp49
 70
     1
102
RTVSPost2010Prop50
 90
       50
102
RTVSPost2010PropOp50
 70
     1
102
RTVSPost2010Prop51ColorIndex
 90
      256
102
RTVSPost2010Prop51ColorRGB
 90
-16777216
102
RTVSPost2010PropOp51
 70
     0
102
RTVSPost2010Prop52
140
1.0
102
RTVSPost2010PropOp52
 70
     0
102
RTVSPost2010Prop53
 90
        2
102
RTVSPost2010PropOp53
 70
     1
102
RTVSPost2010Prop54
  1
strokes_ogs.tif
102
RTVSPost2010PropOp54
 70
     1
102
RTVSPost2010Prop55
280
     0
102
RTVSPost2010PropOp55
 70
     1
102
RTVSPost2010Prop56
140
1.0
102
RTVSPost2010PropOp56
 70
     1
102
RTVSPost2010Prop57
140
1.0
102
RTVSPost2010PropOp57
 70
     1
  0
XRECORD
  5
354
102
{ACAD_REACTORS
330
353
102
}
330
353
100
AcDbXrecord
280
     1
102
RTVSPropertyOp0
 70
     1
102
RTVSPropertyOp1
 70
     1
102
RTVSPropertyOp2
 70
     1
102
RTVSPropertyOp3
 70
     1
102
RTVSPropertyOp4
 70
     1
102
RTVSPropertyOp5
 70
     1
102
RTVSPropertyOp6
 70
     1
102
RTVSPropertyOp7
 70
     1
102
RTVSPropertyOp8
 70
     1
102
RTVSPropertyOp9
 70
     1
102
RTVSPropertyOp10
 70
     1
102
RTVSPropertyOp11
 70
     1
102
RTVSPropertyOp12
 70
     1
102
RTVSPropertyOp13
 70
     1
102
RTVSPropertyOp14
 70
     1
102
RTVSPropertyOp15
 70
     1
102
RTVSPropertyOp16
 70
     1
102
RTVSPropertyOp17
 70
     1
102
RTVSPropertyOp18
 70
     1
102
RTVSPropertyOp19
 70
     1
102
RTVSPropertyOp20
 70
     1
102
RTVSPropertyOp21
 70
     1
102
RTVSPropertyOp22
 70
     1
102
RTVSPropertyOp23
 70
     1
102
RTVSPropertyOp24
 70
     1
102
RTVSPropertyOp25
 70
     1
102
RTVSPropertyOp26
 70
     1
102
RTVSPropertyOp27
 70
     1
102
RTVSPropertyOp28
 70
     1
102
RTVSPropertyOp29
 70
     1
102
RTVSPropertyOp30
 70
     1
102
RTVSPropertyOp31
 70
     1
102
RTVSPropertyOp32
 70
     1
102
RTVSPropertyOp33
 70
     1
102
RTVSPropertyOp34
 70
     1
102
RTVSPropertyOp35
 70
     1
102
RTVSPropertyOp36
 70
     1
102
RTVSPropertyOp37
 70
     1
102
RTVSPropertyOp38
 70
     1
102
RTVSPropertyOp39
 70
     1
102
RTVSPropertyOp40
 70
     1
102
RTVSPropertyOp41
 70
     1
102
RTVSPropertyOp42
 70
     1
102
RTVSPropertyOp43
 70
     1
102
RTVSPropertyOp44
 70
     1
102
RTVSPropertyOp45
 70
     1
102
RTVSPropertyOp46
 70
     1
102
RTVSPropertyOp47
 70
     1
102
RTVSPropertyOp48
 70
     1
102
RTVSPropertyOp49
 70
     1
102
RTVSPropertyOp50
 70
     1
102
RTVSPropertyOp51
 70
     0
102
RTVSPropertyOp52
 70
     0
102
RTVSPropertyOp53
 70
     1
102
RTVSPropertyOp54
 70
     1
102
RTVSPropertyOp55
 70
     1
102
RTVSPropertyOp56
 70
     1
102
RTVSPropertyOp57
 70
     1
102
RTVSPost2010Prop28
280
     0
102
RTVSPost2010PropOp28
 70
     1
102
RTVSPost2010Prop29
280
     1
102
RTVSPost2010PropOp29
 70
     1
102
RTVSPost2010Prop30
280
     1
102
RTVSPost2010PropOp30
 70
     1
102
RTVSPost2010Prop31
280
     0
102
RTVSPost2010PropOp31
 70
     1
102
RTVSPost2010Prop32
280
     0
102
RTVSPost2010PropOp32
 70
     1
102
RTVSPost2010Prop33
280
     0
102
RTVSPost2010PropOp33
 70
     1
102
RTVSPost2010Prop34
280
     0
102
RTVSPost2010PropOp34
 70
     1
102
RTVSPost2010Prop35
280
     0
102
RTVSPost2010PropOp35
 70
     1
102
RTVSPost2010Prop36
280
     0
102
RTVSPost2010PropOp36
 70
     1
102
RTVSPost2010Prop37
 90
       50
102
RTVSPost2010PropOp37
 70
     1
102
RTVSPost2010Prop38
140
0.0
102
RTVSPost2010PropOp38
 70
     1
102
RTVSPost2010Prop39
140
1.0
102
RTVSPost2010PropOp39
 70
     1
102
RTVSPost2010Prop40
 90
        0
102
RTVSPost2010PropOp40
 70
     1
102
RTVSPost2010Prop41ColorIndex
 90
       18
102
RTVSPost2010Prop41ColorRGB
 90
        0
102
RTVSPost2010PropOp41
 70
     1
102
RTVSPost2010Prop42
 90
       50
102
RTVSPost2010PropOp42
 70
     1
102
RTVSPost2010Prop43
 90
        3
102
RTVSPost2010PropOp43
 70
     1
102
RTVSPost2010Prop44ColorIndex
 90
        5
102
RTVSPost2010Prop44ColorRGB
 90
      255
102
RTVSPost2010PropOp44
 70
     1
102
RTVSPost2010Prop45
280
     0
102
RTVSPost2010PropOp45
 70
     1
102
RTVSPost2010Prop46
 90
       50
102
RTVSPost2010PropOp46
 70
     1
102
RTVSPost2010Prop47
 90
       50
102
RTVSPost2010PropOp47
 70
     1
102
RTVSPost2010Prop48
 90
       50
102
RTVSPost2010PropOp48
 70
     1
102
RTVSPost2010Prop49
280
     0
102
RTVSPost2010PropOp49
 70
     1
102
RTVSPost2010Prop50
 90
       50
102
RTVSPost2010PropOp50
 70
     1
102
RTVSPost2010Prop51ColorIndex
 90
      256
102
RTVSPost2010Prop51ColorRGB
 90
-16777216
102
RTVSPost2010PropOp51
 70
     0
102
RTVSPost2010Prop52
140
1.0
102
RTVSPost2010PropOp52
 70
     0
102
RTVSPost2010Prop53
 90
        2
102
RTVSPost2010PropOp53
 70
     1
102
RTVSPost2010Prop54
  1
strokes_ogs.tif
102
RTVSPost2010PropOp54
 70
     1
102
RTVSPost2010Prop55
280
     0
102
RTVSPost2010PropOp55
 70
     1
102
RTVSPost2010Prop56
140
1.0
102
RTVSPost2010PropOp56
 70
     1
102
RTVSPost2010Prop57
140
1.0
102
RTVSPost2010PropOp57
 70
     1
  0
XRECORD
  5
368
102
{ACAD_REACTORS
330
367
102
}
330
367
100
AcDbXrecord
280
     1
102
RTVSPropertyOp0
 70
     0
102
RTVSPropertyOp1
 70
     0
102
RTVSPropertyOp2
 70
     0
102
RTVSPropertyOp3
 70
     0
102
RTVSPropertyOp4
 70
     0
102
RTVSPropertyOp5
 70
     0
102
RTVSPropertyOp6
 70
     0
102
RTVSPropertyOp7
 70
     0
102
RTVSPropertyOp8
 70
     0
102
RTVSPropertyOp9
 70
     0
102
RTVSPropertyOp10
 70
     0
102
RTVSPropertyOp11
 70
     0
102
RTVSPropertyOp12
 70
     0
102
RTVSPropertyOp13
 70
     0
102
RTVSPropertyOp14
 70
     2
102
RTVSPropertyOp15
 70
     0
102
RTVSPropertyOp16
 70
     0
102
RTVSPropertyOp17
 70
     0
102
RTVSPropertyOp18
 70
     0
102
RTVSPropertyOp19
 70
     0
102
RTVSPropertyOp20
 70
     0
102
RTVSPropertyOp21
 70
     0
102
RTVSPropertyOp22
 70
     0
102
RTVSPropertyOp23
 70
     0
102
RTVSPropertyOp24
 70
     0
102
RTVSPropertyOp25
 70
     0
102
RTVSPropertyOp26
 70
     0
102
RTVSPropertyOp27
 70
     0
102
RTVSPropertyOp28
 70
     0
102
RTVSPropertyOp29
 70
     0
102
RTVSPropertyOp30
 70
     0
102
RTVSPropertyOp31
 70
     0
102
RTVSPropertyOp32
 70
     0
102
RTVSPropertyOp33
 70
     0
102
RTVSPropertyOp34
 70
     0
102
RTVSPropertyOp35
 70
     0
102
RTVSPropertyOp36
 70
     0
102
RTVSPropertyOp37
 70
     0
102
RTVSPropertyOp38
 70
     0
102
RTVSPropertyOp39
 70
     0
102
RTVSPropertyOp40
 70
     0
102
RTVSPropertyOp41
 70
     0
102
RTVSPropertyOp42
 70
     0
102
RTVSPropertyOp43
 70
     0
102
RTVSPropertyOp44
 70
     0
102
RTVSPropertyOp45
 70
     0
102
RTVSPropertyOp46
 70
     0
102
RTVSPropertyOp47
 70
     0
102
RTVSPropertyOp48
 70
     0
102
RTVSPropertyOp49
 70
     0
102
RTVSPropertyOp50
 70
     0
102
RTVSPropertyOp51
 70
     0
102
RTVSPropertyOp52
 70
     0
102
RTVSPropertyOp53
 70
     0
102
RTVSPropertyOp54
 70
     0
102
RTVSPropertyOp55
 70
     0
102
RTVSPropertyOp56
 70
     0
102
RTVSPropertyOp57
 70
     0
102
RTVSPost2010Prop28
280
     0
102
RTVSPost2010PropOp28
 70
     0
102
RTVSPost2010Prop29
280
     1
102
RTVSPost2010PropOp29
 70
     0
102
RTVSPost2010Prop30
280
     1
102
RTVSPost2010PropOp30
 70
     0
102
RTVSPost2010Prop31
280
     0
102
RTVSPost2010PropOp31
 70
     0
102
RTVSPost2010Prop32
280
     0
102
RTVSPost2010PropOp32
 70
     0
102
RTVSPost2010Prop33
280
     0
102
RTVSPost2010PropOp33
 70
     0
102
RTVSPost2010Prop34
280
     0
102
RTVSPost2010PropOp34
 70
     0
102
RTVSPost2010Prop35
280
     0
102
RTVSPost2010PropOp35
 70
     0
102
RTVSPost2010Prop36
280
     0
102
RTVSPost2010PropOp36
 70
     0
102
RTVSPost2010Prop37
 90
       50
102
RTVSPost2010PropOp37
 70
     0
102
RTVSPost2010Prop38
140
0.0
102
RTVSPost2010PropOp38
 70
     0
102
RTVSPost2010Prop39
140
1.0
102
RTVSPost2010PropOp39
 70
     0
102
RTVSPost2010Prop40
 90
        0
102
RTVSPost2010PropOp40
 70
     0
102
RTVSPost2010Prop41ColorIndex
 90
       18
102
RTVSPost2010Prop41ColorRGB
 90
        0
102
RTVSPost2010PropOp41
 70
     0
102
RTVSPost2010Prop42
 90
       50
102
RTVSPost2010PropOp42
 70
     0
102
RTVSPost2010Prop43
 90
        3
102
RTVSPost2010PropOp43
 70
     0
102
RTVSPost2010Prop44ColorIndex
 90
        5
102
RTVSPost2010Prop44ColorRGB
 90
      255
102
RTVSPost2010PropOp44
 70
     0
102
RTVSPost2010Prop45
280
     0
102
RTVSPost2010PropOp45
 70
     0
102
RTVSPost2010Prop46
 90
       50
102
RTVSPost2010PropOp46
 70
     0
102
RTVSPost2010Prop47
 90
       50
102
RTVSPost2010PropOp47
 70
     0
102
RTVSPost2010Prop48
 90
       50
102
RTVSPost2010PropOp48
 70
     0
102
RTVSPost2010Prop49
280
     0
102
RTVSPost2010PropOp49
 70
     0
102
RTVSPost2010Prop50
 90
       50
102
RTVSPost2010PropOp50
 70
     0
102
RTVSPost2010Prop51ColorIndex
 90
      256
102
RTVSPost2010Prop51ColorRGB
 90
-16777216
102
RTVSPost2010PropOp51
 70
     0
102
RTVSPost2010Prop52
140
1.0
102
RTVSPost2010PropOp52
 70
     0
102
RTVSPost2010Prop53
 90
        2
102
RTVSPost2010PropOp53
 70
     0
102
RTVSPost2010Prop54
  1
strokes_ogs.tif
102
RTVSPost2010PropOp54
 70
     0
102
RTVSPost2010Prop55
280
     0
102
RTVSPost2010PropOp55
 70
     0
102
RTVSPost2010Prop56
140
1.0
102
RTVSPost2010PropOp56
 70
     0
102
RTVSPost2010Prop57
140
1.0
102
RTVSPost2010PropOp57
 70
     0
  0
XRECORD
  5
362
102
{ACAD_REACTORS
330
361
102
}
330
361
100
AcDbXrecord
280
     1
102
RTVSPropertyOp0
 70
     1
102
RTVSPropertyOp1
 70
     1
102
RTVSPropertyOp2
 70
     1
102
RTVSPropertyOp3
 70
     1
102
RTVSPropertyOp4
 70
     1
102
RTVSPropertyOp5
 70
     1
102
RTVSPropertyOp6
 70
     1
102
RTVSPropertyOp7
 70
     1
102
RTVSPropertyOp8
 70
     1
102
RTVSPropertyOp9
 70
     1
102
RTVSPropertyOp10
 70
     1
102
RTVSPropertyOp11
 70
     1
102
RTVSPropertyOp12
 70
     1
102
RTVSPropertyOp13
 70
     1
102
RTVSPropertyOp14
 70
     1
102
RTVSPropertyOp15
 70
     1
102
RTVSPropertyOp16
 70
     1
102
RTVSPropertyOp17
 70
     1
102
RTVSPropertyOp18
 70
     1
102
RTVSPropertyOp19
 70
     1
102
RTVSPropertyOp20
 70
     1
102
RTVSPropertyOp21
 70
     1
102
RTVSPropertyOp22
 70
     1
102
RTVSPropertyOp23
 70
     1
102
RTVSPropertyOp24
 70
     1
102
RTVSPropertyOp25
 70
     1
102
RTVSPropertyOp26
 70
     1
102
RTVSPropertyOp27
 70
     1
102
RTVSPropertyOp28
 70
     1
102
RTVSPropertyOp29
 70
     1
102
RTVSPropertyOp30
 70
     1
102
RTVSPropertyOp31
 70
     1
102
RTVSPropertyOp32
 70
     1
102
RTVSPropertyOp33
 70
     1
102
RTVSPropertyOp34
 70
     1
102
RTVSPropertyOp35
 70
     1
102
RTVSPropertyOp36
 70
     1
102
RTVSPropertyOp37
 70
     1
102
RTVSPropertyOp38
 70
     1
102
RTVSPropertyOp39
 70
     1
102
RTVSPropertyOp40
 70
     1
102
RTVSPropertyOp41
 70
     1
102
RTVSPropertyOp42
 70
     1
102
RTVSPropertyOp43
 70
     1
102
RTVSPropertyOp44
 70
     1
102
RTVSPropertyOp45
 70
     1
102
RTVSPropertyOp46
 70
     1
102
RTVSPropertyOp47
 70
     1
102
RTVSPropertyOp48
 70
     1
102
RTVSPropertyOp49
 70
     1
102
RTVSPropertyOp50
 70
     1
102
RTVSPropertyOp51
 70
     0
102
RTVSPropertyOp52
 70
     0
102
RTVSPropertyOp53
 70
     1
102
RTVSPropertyOp54
 70
     1
102
RTVSPropertyOp55
 70
     1
102
RTVSPropertyOp56
 70
     1
102
RTVSPropertyOp57
 70
     1
102
RTVSPost2010Prop28
280
     0
102
RTVSPost2010PropOp28
 70
     1
102
RTVSPost2010Prop29
280
     1
102
RTVSPost2010PropOp29
 70
     1
102
RTVSPost2010Prop30
280
     1
102
RTVSPost2010PropOp30
 70
     1
102
RTVSPost2010Prop31
280
     0
102
RTVSPost2010PropOp31
 70
     1
102
RTVSPost2010Prop32
280
     0
102
RTVSPost2010PropOp32
 70
     1
102
RTVSPost2010Prop33
280
     0
102
RTVSPost2010PropOp33
 70
     1
102
RTVSPost2010Prop34
280
     0
102
RTVSPost2010PropOp34
 70
     1
102
RTVSPost2010Prop35
280
     0
102
RTVSPost2010PropOp35
 70
     1
102
RTVSPost2010Prop36
280
     0
102
RTVSPost2010PropOp36
 70
     1
102
RTVSPost2010Prop37
 90
       50
102
RTVSPost2010PropOp37
 70
     1
102
RTVSPost2010Prop38
140
0.0
102
RTVSPost2010PropOp38
 70
     1
102
RTVSPost2010Prop39
140
1.0
102
RTVSPost2010PropOp39
 70
     1
102
RTVSPost2010Prop40
 90
        0
102
RTVSPost2010PropOp40
 70
     1
102
RTVSPost2010Prop41ColorIndex
 90
       18
102
RTVSPost2010Prop41ColorRGB
 90
        0
102
RTVSPost2010PropOp41
 70
     1
102
RTVSPost2010Prop42
 90
       50
102
RTVSPost2010PropOp42
 70
     1
102
RTVSPost2010Prop43
 90
        3
102
RTVSPost2010PropOp43
 70
     1
102
RTVSPost2010Prop44ColorIndex
 90
        5
102
RTVSPost2010Prop44ColorRGB
 90
      255
102
RTVSPost2010PropOp44
 70
     1
102
RTVSPost2010Prop45
280
     0
102
RTVSPost2010PropOp45
 70
     1
102
RTVSPost2010Prop46
 90
       50
102
RTVSPost2010PropOp46
 70
     1
102
RTVSPost2010Prop47
 90
       50
102
RTVSPost2010PropOp47
 70
     1
102
RTVSPost2010Prop48
 90
       50
102
RTVSPost2010PropOp48
 70
     1
102
RTVSPost2010Prop49
280
     0
102
RTVSPost2010PropOp49
 70
     1
102
RTVSPost2010Prop50
 90
       50
102
RTVSPost2010PropOp50
 70
     1
102
RTVSPost2010Prop51ColorIndex
 90
      256
102
RTVSPost2010Prop51ColorRGB
 90
-16777216
102
RTVSPost2010PropOp51
 70
     0
102
RTVSPost2010Prop52
140
1.0
102
RTVSPost2010PropOp52
 70
     0
102
RTVSPost2010Prop53
 90
        2
102
RTVSPost2010PropOp53
 70
     1
102
RTVSPost2010Prop54
  1
strokes_ogs.tif
102
RTVSPost2010PropOp54
 70
     1
102
RTVSPost2010Prop55
280
     0
102
RTVSPost2010PropOp55
 70
     1
102
RTVSPost2010Prop56
140
1.0
102
RTVSPost2010PropOp56
 70
     1
102
RTVSPost2010Prop57
140
1.0
102
RTVSPost2010PropOp57
 70
     1
  0
XRECORD
  5
36A
102
{ACAD_REACTORS
330
369
102
}
330
369
100
AcDbXrecord
280
     1
102
RTVSPropertyOp0
 70
     0
102
RTVSPropertyOp1
 70
     0
102
RTVSPropertyOp2
 70
     0
102
RTVSPropertyOp3
 70
     0
102
RTVSPropertyOp4
 70
     0
102
RTVSPropertyOp5
 70
     0
102
RTVSPropertyOp6
 70
     0
102
RTVSPropertyOp7
 70
     0
102
RTVSPropertyOp8
 70
     0
102
RTVSPropertyOp9
 70
     0
102
RTVSPropertyOp10
 70
     0
102
RTVSPropertyOp11
 70
     0
102
RTVSPropertyOp12
 70
     0
102
RTVSPropertyOp13
 70
     0
102
RTVSPropertyOp14
 70
     2
102
RTVSPropertyOp15
 70
     0
102
RTVSPropertyOp16
 70
     0
102
RTVSPropertyOp17
 70
     0
102
RTVSPropertyOp18
 70
     0
102
RTVSPropertyOp19
 70
     0
102
RTVSPropertyOp20
 70
     0
102
RTVSPropertyOp21
 70
     0
102
RTVSPropertyOp22
 70
     0
102
RTVSPropertyOp23
 70
     0
102
RTVSPropertyOp24
 70
     0
102
RTVSPropertyOp25
 70
     0
102
RTVSPropertyOp26
 70
     0
102
RTVSPropertyOp27
 70
     0
102
RTVSPropertyOp28
 70
     0
102
RTVSPropertyOp29
 70
     0
102
RTVSPropertyOp30
 70
     0
102
RTVSPropertyOp31
 70
     0
102
RTVSPropertyOp32
 70
     0
102
RTVSPropertyOp33
 70
     0
102
RTVSPropertyOp34
 70
     0
102
RTVSPropertyOp35
 70
     0
102
RTVSPropertyOp36
 70
     0
102
RTVSPropertyOp37
 70
     0
102
RTVSPropertyOp38
 70
     0
102
RTVSPropertyOp39
 70
     0
102
RTVSPropertyOp40
 70
     0
102
RTVSPropertyOp41
 70
     0
102
RTVSPropertyOp42
 70
     0
102
RTVSPropertyOp43
 70
     0
102
RTVSPropertyOp44
 70
     0
102
RTVSPropertyOp45
 70
     0
102
RTVSPropertyOp46
 70
     0
102
RTVSPropertyOp47
 70
     0
102
RTVSPropertyOp48
 70
     0
102
RTVSPropertyOp49
 70
     0
102
RTVSPropertyOp50
 70
     0
102
RTVSPropertyOp51
 70
     0
102
RTVSPropertyOp52
 70
     0
102
RTVSPropertyOp53
 70
     0
102
RTVSPropertyOp54
 70
     0
102
RTVSPropertyOp55
 70
     0
102
RTVSPropertyOp56
 70
     0
102
RTVSPropertyOp57
 70
     0
102
RTVSPost2010Prop28
280
     0
102
RTVSPost2010PropOp28
 70
     0
102
RTVSPost2010Prop29
280
     1
102
RTVSPost2010PropOp29
 70
     0
102
RTVSPost2010Prop30
280
     1
102
RTVSPost2010PropOp30
 70
     0
102
RTVSPost2010Prop31
280
     0
102
RTVSPost2010PropOp31
 70
     0
102
RTVSPost2010Prop32
280
     0
102
RTVSPost2010PropOp32
 70
     0
102
RTVSPost2010Prop33
280
     0
102
RTVSPost2010PropOp33
 70
     0
102
RTVSPost2010Prop34
280
     0
102
RTVSPost2010PropOp34
 70
     0
102
RTVSPost2010Prop35
280
     0
102
RTVSPost2010PropOp35
 70
     0
102
RTVSPost2010Prop36
280
     0
102
RTVSPost2010PropOp36
 70
     0
102
RTVSPost2010Prop37
 90
       50
102
RTVSPost2010PropOp37
 70
     0
102
RTVSPost2010Prop38
140
0.0
102
RTVSPost2010PropOp38
 70
     0
102
RTVSPost2010Prop39
140
1.0
102
RTVSPost2010PropOp39
 70
     0
102
RTVSPost2010Prop40
 90
        0
102
RTVSPost2010PropOp40
 70
     0
102
RTVSPost2010Prop41ColorIndex
 90
       18
102
RTVSPost2010Prop41ColorRGB
 90
        0
102
RTVSPost2010PropOp41
 70
     0
102
RTVSPost2010Prop42
 90
       50
102
RTVSPost2010PropOp42
 70
     0
102
RTVSPost2010Prop43
 90
        3
102
RTVSPost2010PropOp43
 70
     0
102
RTVSPost2010Prop44ColorIndex
 90
        5
102
RTVSPost2010Prop44ColorRGB
 90
      255
102
RTVSPost2010PropOp44
 70
     0
102
RTVSPost2010Prop45
280
     0
102
RTVSPost2010PropOp45
 70
     0
102
RTVSPost2010Prop46
 90
       50
102
RTVSPost2010PropOp46
 70
     0
102
RTVSPost2010Prop47
 90
       50
102
RTVSPost2010PropOp47
 70
     0
102
RTVSPost2010Prop48
 90
       50
102
RTVSPost2010PropOp48
 70
     0
102
RTVSPost2010Prop49
280
     0
102
RTVSPost2010PropOp49
 70
     0
102
RTVSPost2010Prop50
 90
       50
102
RTVSPost2010PropOp50
 70
     0
102
RTVSPost2010Prop51ColorIndex
 90
      256
102
RTVSPost2010Prop51ColorRGB
 90
-16777216
102
RTVSPost2010PropOp51
 70
     0
102
RTVSPost2010Prop52
140
1.0
102
RTVSPost2010PropOp52
 70
     0
102
RTVSPost2010Prop53
 90
        2
102
RTVSPost2010PropOp53
 70
     0
102
RTVSPost2010Prop54
  1
strokes_ogs.tif
102
RTVSPost2010PropOp54
 70
     0
102
RTVSPost2010Prop55
280
     0
102
RTVSPost2010PropOp55
 70
     0
102
RTVSPost2010Prop56
140
1.0
102
RTVSPost2010PropOp56
 70
     0
102
RTVSPost2010Prop57
140
1.0
102
RTVSPost2010PropOp57
 70
     0
  0
XRECORD
  5
358
102
{ACAD_REACTORS
330
357
102
}
330
357
100
AcDbXrecord
280
     1
102
RTVSPropertyOp0
 70
     1
102
RTVSPropertyOp1
 70
     1
102
RTVSPropertyOp2
 70
     1
102
RTVSPropertyOp3
 70
     1
102
RTVSPropertyOp4
 70
     1
102
RTVSPropertyOp5
 70
     1
102
RTVSPropertyOp6
 70
     1
102
RTVSPropertyOp7
 70
     1
102
RTVSPropertyOp8
 70
     1
102
RTVSPropertyOp9
 70
     1
102
RTVSPropertyOp10
 70
     1
102
RTVSPropertyOp11
 70
     1
102
RTVSPropertyOp12
 70
     1
102
RTVSPropertyOp13
 70
     1
102
RTVSPropertyOp14
 70
     1
102
RTVSPropertyOp15
 70
     1
102
RTVSPropertyOp16
 70
     1
102
RTVSPropertyOp17
 70
     1
102
RTVSPropertyOp18
 70
     1
102
RTVSPropertyOp19
 70
     1
102
RTVSPropertyOp20
 70
     1
102
RTVSPropertyOp21
 70
     1
102
RTVSPropertyOp22
 70
     1
102
RTVSPropertyOp23
 70
     1
102
RTVSPropertyOp24
 70
     1
102
RTVSPropertyOp25
 70
     1
102
RTVSPropertyOp26
 70
     1
102
RTVSPropertyOp27
 70
     1
102
RTVSPropertyOp28
 70
     1
102
RTVSPropertyOp29
 70
     1
102
RTVSPropertyOp30
 70
     1
102
RTVSPropertyOp31
 70
     1
102
RTVSPropertyOp32
 70
     1
102
RTVSPropertyOp33
 70
     1
102
RTVSPropertyOp34
 70
     1
102
RTVSPropertyOp35
 70
     1
102
RTVSPropertyOp36
 70
     1
102
RTVSPropertyOp37
 70
     1
102
RTVSPropertyOp38
 70
     1
102
RTVSPropertyOp39
 70
     1
102
RTVSPropertyOp40
 70
     1
102
RTVSPropertyOp41
 70
     1
102
RTVSPropertyOp42
 70
     1
102
RTVSPropertyOp43
 70
     1
102
RTVSPropertyOp44
 70
     1
102
RTVSPropertyOp45
 70
     1
102
RTVSPropertyOp46
 70
     1
102
RTVSPropertyOp47
 70
     1
102
RTVSPropertyOp48
 70
     1
102
RTVSPropertyOp49
 70
     1
102
RTVSPropertyOp50
 70
     1
102
RTVSPropertyOp51
 70
     0
102
RTVSPropertyOp52
 70
     0
102
RTVSPropertyOp53
 70
     1
102
RTVSPropertyOp54
 70
     1
102
RTVSPropertyOp55
 70
     1
102
RTVSPropertyOp56
 70
     1
102
RTVSPropertyOp57
 70
     1
102
RTVSPost2010Prop28
280
     0
102
RTVSPost2010PropOp28
 70
     1
102
RTVSPost2010Prop29
280
     1
102
RTVSPost2010PropOp29
 70
     1
102
RTVSPost2010Prop30
280
     1
102
RTVSPost2010PropOp30
 70
     1
102
RTVSPost2010Prop31
280
     0
102
RTVSPost2010PropOp31
 70
     1
102
RTVSPost2010Prop32
280
     0
102
RTVSPost2010PropOp32
 70
     1
102
RTVSPost2010Prop33
280
     0
102
RTVSPost2010PropOp33
 70
     1
102
RTVSPost2010Prop34
280
     0
102
RTVSPost2010PropOp34
 70
     1
102
RTVSPost2010Prop35
280
     0
102
RTVSPost2010PropOp35
 70
     1
102
RTVSPost2010Prop36
280
     0
102
RTVSPost2010PropOp36
 70
     1
102
RTVSPost2010Prop37
 90
       50
102
RTVSPost2010PropOp37
 70
     1
102
RTVSPost2010Prop38
140
0.0
102
RTVSPost2010PropOp38
 70
     1
102
RTVSPost2010Prop39
140
1.0
102
RTVSPost2010PropOp39
 70
     1
102
RTVSPost2010Prop40
 90
        0
102
RTVSPost2010PropOp40
 70
     1
102
RTVSPost2010Prop41ColorIndex
 90
       18
102
RTVSPost2010Prop41ColorRGB
 90
        0
102
RTVSPost2010PropOp41
 70
     1
102
RTVSPost2010Prop42
 90
       50
102
RTVSPost2010PropOp42
 70
     1
102
RTVSPost2010Prop43
 90
        3
102
RTVSPost2010PropOp43
 70
     1
102
RTVSPost2010Prop44ColorIndex
 90
        5
102
RTVSPost2010Prop44ColorRGB
 90
      255
102
RTVSPost2010PropOp44
 70
     1
102
RTVSPost2010Prop45
280
     0
102
RTVSPost2010PropOp45
 70
     1
102
RTVSPost2010Prop46
 90
       50
102
RTVSPost2010PropOp46
 70
     1
102
RTVSPost2010Prop47
 90
       50
102
RTVSPost2010PropOp47
 70
     1
102
RTVSPost2010Prop48
 90
       50
102
RTVSPost2010PropOp48
 70
     1
102
RTVSPost2010Prop49
280
     0
102
RTVSPost2010PropOp49
 70
     1
102
RTVSPost2010Prop50
 90
       50
102
RTVSPost2010PropOp50
 70
     1
102
RTVSPost2010Prop51ColorIndex
 90
      256
102
RTVSPost2010Prop51ColorRGB
 90
-16777216
102
RTVSPost2010PropOp51
 70
     0
102
RTVSPost2010Prop52
140
1.0
102
RTVSPost2010PropOp52
 70
     0
102
RTVSPost2010Prop53
 90
        2
102
RTVSPost2010PropOp53
 70
     1
102
RTVSPost2010Prop54
  1
strokes_ogs.tif
102
RTVSPost2010PropOp54
 70
     1
102
RTVSPost2010Prop55
280
     0
102
RTVSPost2010PropOp55
 70
     1
102
RTVSPost2010Prop56
140
1.0
102
RTVSPost2010PropOp56
 70
     1
102
RTVSPost2010Prop57
140
1.0
102
RTVSPost2010PropOp57
 70
     1
  0
XRECORD
  5
376
102
{ACAD_REACTORS
330
375
102
}
330
375
100
AcDbXrecord
280
     1
102
RTVSPropertyOp0
 70
     1
102
RTVSPropertyOp1
 70
     1
102
RTVSPropertyOp2
 70
     1
102
RTVSPropertyOp3
 70
     1
102
RTVSPropertyOp4
 70
     1
102
RTVSPropertyOp5
 70
     1
102
RTVSPropertyOp6
 70
     1
102
RTVSPropertyOp7
 70
     1
102
RTVSPropertyOp8
 70
     1
102
RTVSPropertyOp9
 70
     1
102
RTVSPropertyOp10
 70
     1
102
RTVSPropertyOp11
 70
     1
102
RTVSPropertyOp12
 70
     1
102
RTVSPropertyOp13
 70
     1
102
RTVSPropertyOp14
 70
     1
102
RTVSPropertyOp15
 70
     1
102
RTVSPropertyOp16
 70
     1
102
RTVSPropertyOp17
 70
     1
102
RTVSPropertyOp18
 70
     1
102
RTVSPropertyOp19
 70
     1
102
RTVSPropertyOp20
 70
     1
102
RTVSPropertyOp21
 70
     1
102
RTVSPropertyOp22
 70
     1
102
RTVSPropertyOp23
 70
     1
102
RTVSPropertyOp24
 70
     1
102
RTVSPropertyOp25
 70
     1
102
RTVSPropertyOp26
 70
     1
102
RTVSPropertyOp27
 70
     1
102
RTVSPropertyOp28
 70
     1
102
RTVSPropertyOp29
 70
     1
102
RTVSPropertyOp30
 70
     1
102
RTVSPropertyOp31
 70
     1
102
RTVSPropertyOp32
 70
     1
102
RTVSPropertyOp33
 70
     1
102
RTVSPropertyOp34
 70
     1
102
RTVSPropertyOp35
 70
     1
102
RTVSPropertyOp36
 70
     1
102
RTVSPropertyOp37
 70
     1
102
RTVSPropertyOp38
 70
     1
102
RTVSPropertyOp39
 70
     1
102
RTVSPropertyOp40
 70
     1
102
RTVSPropertyOp41
 70
     1
102
RTVSPropertyOp42
 70
     1
102
RTVSPropertyOp43
 70
     1
102
RTVSPropertyOp44
 70
     1
102
RTVSPropertyOp45
 70
     1
102
RTVSPropertyOp46
 70
     1
102
RTVSPropertyOp47
 70
     1
102
RTVSPropertyOp48
 70
     1
102
RTVSPropertyOp49
 70
     1
102
RTVSPropertyOp50
 70
     1
102
RTVSPropertyOp51
 70
     0
102
RTVSPropertyOp52
 70
     0
102
RTVSPropertyOp53
 70
     1
102
RTVSPropertyOp54
 70
     1
102
RTVSPropertyOp55
 70
     1
102
RTVSPropertyOp56
 70
     1
102
RTVSPropertyOp57
 70
     1
102
RTVSPost2010Prop28
280
     0
102
RTVSPost2010PropOp28
 70
     1
102
RTVSPost2010Prop29
280
     1
102
RTVSPost2010PropOp29
 70
     1
102
RTVSPost2010Prop30
280
     1
102
RTVSPost2010PropOp30
 70
     1
102
RTVSPost2010Prop31
280
     0
102
RTVSPost2010PropOp31
 70
     1
102
RTVSPost2010Prop32
280
     0
102
RTVSPost2010PropOp32
 70
     1
102
RTVSPost2010Prop33
280
     0
102
RTVSPost2010PropOp33
 70
     1
102
RTVSPost2010Prop34
280
     0
102
RTVSPost2010PropOp34
 70
     1
102
RTVSPost2010Prop35
280
     0
102
RTVSPost2010PropOp35
 70
     1
102
RTVSPost2010Prop36
280
     0
102
RTVSPost2010PropOp36
 70
     1
102
RTVSPost2010Prop37
 90
       50
102
RTVSPost2010PropOp37
 70
     1
102
RTVSPost2010Prop38
140
0.0
102
RTVSPost2010PropOp38
 70
     1
102
RTVSPost2010Prop39
140
1.0
102
RTVSPost2010PropOp39
 70
     1
102
RTVSPost2010Prop40
 90
        0
102
RTVSPost2010PropOp40
 70
     1
102
RTVSPost2010Prop41ColorIndex
 90
       18
102
RTVSPost2010Prop41ColorRGB
 90
        0
102
RTVSPost2010PropOp41
 70
     1
102
RTVSPost2010Prop42
 90
       50
102
RTVSPost2010PropOp42
 70
     1
102
RTVSPost2010Prop43
 90
        3
102
RTVSPost2010PropOp43
 70
     1
102
RTVSPost2010Prop44ColorIndex
 90
        5
102
RTVSPost2010Prop44ColorRGB
 90
      255
102
RTVSPost2010PropOp44
 70
     1
102
RTVSPost2010Prop45
280
     0
102
RTVSPost2010PropOp45
 70
     1
102
RTVSPost2010Prop46
 90
       50
102
RTVSPost2010PropOp46
 70
     1
102
RTVSPost2010Prop47
 90
       50
102
RTVSPost2010PropOp47
 70
     1
102
RTVSPost2010Prop48
 90
       50
102
RTVSPost2010PropOp48
 70
     1
102
RTVSPost2010Prop49
280
     0
102
RTVSPost2010PropOp49
 70
     1
102
RTVSPost2010Prop50
 90
       50
102
RTVSPost2010PropOp50
 70
     1
102
RTVSPost2010Prop51ColorIndex
 90
      256
102
RTVSPost2010Prop51ColorRGB
 90
-16777216
102
RTVSPost2010PropOp51
 70
     0
102
RTVSPost2010Prop52
140
1.0
102
RTVSPost2010PropOp52
 70
     0
102
RTVSPost2010Prop53
 90
        2
102
RTVSPost2010PropOp53
 70
     1
102
RTVSPost2010Prop54
  1
strokes_ogs.tif
102
RTVSPost2010PropOp54
 70
     1
102
RTVSPost2010Prop55
280
     0
102
RTVSPost2010PropOp55
 70
     1
102
RTVSPost2010Prop56
140
1.0
102
RTVSPost2010PropOp56
 70
     1
102
RTVSPost2010Prop57
140
1.0
102
RTVSPost2010PropOp57
 70
     1
  0
XRECORD
  5
374
102
{ACAD_REACTORS
330
373
102
}
330
373
100
AcDbXrecord
280
     1
102
RTVSPropertyOp0
 70
     1
102
RTVSPropertyOp1
 70
     1
102
RTVSPropertyOp2
 70
     1
102
RTVSPropertyOp3
 70
     1
102
RTVSPropertyOp4
 70
     1
102
RTVSPropertyOp5
 70
     1
102
RTVSPropertyOp6
 70
     1
102
RTVSPropertyOp7
 70
     1
102
RTVSPropertyOp8
 70
     1
102
RTVSPropertyOp9
 70
     1
102
RTVSPropertyOp10
 70
     1
102
RTVSPropertyOp11
 70
     1
102
RTVSPropertyOp12
 70
     1
102
RTVSPropertyOp13
 70
     1
102
RTVSPropertyOp14
 70
     1
102
RTVSPropertyOp15
 70
     1
102
RTVSPropertyOp16
 70
     1
102
RTVSPropertyOp17
 70
     1
102
RTVSPropertyOp18
 70
     1
102
RTVSPropertyOp19
 70
     1
102
RTVSPropertyOp20
 70
     1
102
RTVSPropertyOp21
 70
     1
102
RTVSPropertyOp22
 70
     1
102
RTVSPropertyOp23
 70
     1
102
RTVSPropertyOp24
 70
     1
102
RTVSPropertyOp25
 70
     1
102
RTVSPropertyOp26
 70
     1
102
RTVSPropertyOp27
 70
     1
102
RTVSPropertyOp28
 70
     1
102
RTVSPropertyOp29
 70
     1
102
RTVSPropertyOp30
 70
     1
102
RTVSPropertyOp31
 70
     1
102
RTVSPropertyOp32
 70
     1
102
RTVSPropertyOp33
 70
     1
102
RTVSPropertyOp34
 70
     1
102
RTVSPropertyOp35
 70
     1
102
RTVSPropertyOp36
 70
     1
102
RTVSPropertyOp37
 70
     1
102
RTVSPropertyOp38
 70
     1
102
RTVSPropertyOp39
 70
     1
102
RTVSPropertyOp40
 70
     1
102
RTVSPropertyOp41
 70
     1
102
RTVSPropertyOp42
 70
     1
102
RTVSPropertyOp43
 70
     1
102
RTVSPropertyOp44
 70
     1
102
RTVSPropertyOp45
 70
     1
102
RTVSPropertyOp46
 70
     1
102
RTVSPropertyOp47
 70
     1
102
RTVSPropertyOp48
 70
     1
102
RTVSPropertyOp49
 70
     1
102
RTVSPropertyOp50
 70
     1
102
RTVSPropertyOp51
 70
     0
102
RTVSPropertyOp52
 70
     0
102
RTVSPropertyOp53
 70
     1
102
RTVSPropertyOp54
 70
     1
102
RTVSPropertyOp55
 70
     1
102
RTVSPropertyOp56
 70
     1
102
RTVSPropertyOp57
 70
     1
102
RTVSPost2010Prop28
280
     0
102
RTVSPost2010PropOp28
 70
     1
102
RTVSPost2010Prop29
280
     1
102
RTVSPost2010PropOp29
 70
     1
102
RTVSPost2010Prop30
280
     1
102
RTVSPost2010PropOp30
 70
     1
102
RTVSPost2010Prop31
280
     0
102
RTVSPost2010PropOp31
 70
     1
102
RTVSPost2010Prop32
280
     0
102
RTVSPost2010PropOp32
 70
     1
102
RTVSPost2010Prop33
280
     0
102
RTVSPost2010PropOp33
 70
     1
102
RTVSPost2010Prop34
280
     0
102
RTVSPost2010PropOp34
 70
     1
102
RTVSPost2010Prop35
280
     0
102
RTVSPost2010PropOp35
 70
     1
102
RTVSPost2010Prop36
280
     0
102
RTVSPost2010PropOp36
 70
     1
102
RTVSPost2010Prop37
 90
       50
102
RTVSPost2010PropOp37
 70
     1
102
RTVSPost2010Prop38
140
0.0
102
RTVSPost2010PropOp38
 70
     1
102
RTVSPost2010Prop39
140
1.0
102
RTVSPost2010PropOp39
 70
     1
102
RTVSPost2010Prop40
 90
        0
102
RTVSPost2010PropOp40
 70
     1
102
RTVSPost2010Prop41ColorIndex
 90
       18
102
RTVSPost2010Prop41ColorRGB
 90
        0
102
RTVSPost2010PropOp41
 70
     1
102
RTVSPost2010Prop42
 90
       50
102
RTVSPost2010PropOp42
 70
     1
102
RTVSPost2010Prop43
 90
        3
102
RTVSPost2010PropOp43
 70
     1
102
RTVSPost2010Prop44ColorIndex
 90
        5
102
RTVSPost2010Prop44ColorRGB
 90
      255
102
RTVSPost2010PropOp44
 70
     1
102
RTVSPost2010Prop45
280
     0
102
RTVSPost2010PropOp45
 70
     1
102
RTVSPost2010Prop46
 90
       50
102
RTVSPost2010PropOp46
 70
     1
102
RTVSPost2010Prop47
 90
       50
102
RTVSPost2010PropOp47
 70
     1
102
RTVSPost2010Prop48
 90
       50
102
RTVSPost2010PropOp48
 70
     1
102
RTVSPost2010Prop49
280
     0
102
RTVSPost2010PropOp49
 70
     1
102
RTVSPost2010Prop50
 90
       50
102
RTVSPost2010PropOp50
 70
     1
102
RTVSPost2010Prop51ColorIndex
 90
      256
102
RTVSPost2010Prop51ColorRGB
 90
-16777216
102
RTVSPost2010PropOp51
 70
     0
102
RTVSPost2010Prop52
140
1.0
102
RTVSPost2010PropOp52
 70
     0
102
RTVSPost2010Prop53
 90
        2
102
RTVSPost2010PropOp53
 70
     1
102
RTVSPost2010Prop54
  1
strokes_ogs.tif
102
RTVSPost2010PropOp54
 70
     1
102
RTVSPost2010Prop55
280
     0
102
RTVSPost2010PropOp55
 70
     1
102
RTVSPost2010Prop56
140
1.0
102
RTVSPost2010PropOp56
 70
     1
102
RTVSPost2010Prop57
140
1.0
102
RTVSPost2010PropOp57
 70
     1
  0
XRECORD
  5
36E
102
{ACAD_REACTORS
330
36D
102
}
330
36D
100
AcDbXrecord
280
     1
102
RTVSPropertyOp0
 70
     1
102
RTVSPropertyOp1
 70
     1
102
RTVSPropertyOp2
 70
     1
102
RTVSPropertyOp3
 70
     1
102
RTVSPropertyOp4
 70
     1
102
RTVSPropertyOp5
 70
     1
102
RTVSPropertyOp6
 70
     1
102
RTVSPropertyOp7
 70
     1
102
RTVSPropertyOp8
 70
     1
102
RTVSPropertyOp9
 70
     1
102
RTVSPropertyOp10
 70
     1
102
RTVSPropertyOp11
 70
     1
102
RTVSPropertyOp12
 70
     1
102
RTVSPropertyOp13
 70
     1
102
RTVSPropertyOp14
 70
     1
102
RTVSPropertyOp15
 70
     1
102
RTVSPropertyOp16
 70
     1
102
RTVSPropertyOp17
 70
     1
102
RTVSPropertyOp18
 70
     1
102
RTVSPropertyOp19
 70
     1
102
RTVSPropertyOp20
 70
     1
102
RTVSPropertyOp21
 70
     1
102
RTVSPropertyOp22
 70
     1
102
RTVSPropertyOp23
 70
     1
102
RTVSPropertyOp24
 70
     1
102
RTVSPropertyOp25
 70
     1
102
RTVSPropertyOp26
 70
     1
102
RTVSPropertyOp27
 70
     1
102
RTVSPropertyOp28
 70
     1
102
RTVSPropertyOp29
 70
     1
102
RTVSPropertyOp30
 70
     1
102
RTVSPropertyOp31
 70
     1
102
RTVSPropertyOp32
 70
     1
102
RTVSPropertyOp33
 70
     1
102
RTVSPropertyOp34
 70
     1
102
RTVSPropertyOp35
 70
     1
102
RTVSPropertyOp36
 70
     1
102
RTVSPropertyOp37
 70
     1
102
RTVSPropertyOp38
 70
     1
102
RTVSPropertyOp39
 70
     1
102
RTVSPropertyOp40
 70
     1
102
RTVSPropertyOp41
 70
     1
102
RTVSPropertyOp42
 70
     1
102
RTVSPropertyOp43
 70
     1
102
RTVSPropertyOp44
 70
     1
102
RTVSPropertyOp45
 70
     1
102
RTVSPropertyOp46
 70
     1
102
RTVSPropertyOp47
 70
     1
102
RTVSPropertyOp48
 70
     1
102
RTVSPropertyOp49
 70
     1
102
RTVSPropertyOp50
 70
     1
102
RTVSPropertyOp51
 70
     0
102
RTVSPropertyOp52
 70
     0
102
RTVSPropertyOp53
 70
     1
102
RTVSPropertyOp54
 70
     1
102
RTVSPropertyOp55
 70
     1
102
RTVSPropertyOp56
 70
     1
102
RTVSPropertyOp57
 70
     1
102
RTVSPost2010Prop28
280
     0
102
RTVSPost2010PropOp28
 70
     1
102
RTVSPost2010Prop29
280
     1
102
RTVSPost2010PropOp29
 70
     1
102
RTVSPost2010Prop30
280
     1
102
RTVSPost2010PropOp30
 70
     1
102
RTVSPost2010Prop31
280
     0
102
RTVSPost2010PropOp31
 70
     1
102
RTVSPost2010Prop32
280
     0
102
RTVSPost2010PropOp32
 70
     1
102
RTVSPost2010Prop33
280
     0
102
RTVSPost2010PropOp33
 70
     1
102
RTVSPost2010Prop34
280
     0
102
RTVSPost2010PropOp34
 70
     1
102
RTVSPost2010Prop35
280
     0
102
RTVSPost2010PropOp35
 70
     1
102
RTVSPost2010Prop36
280
     0
102
RTVSPost2010PropOp36
 70
     1
102
RTVSPost2010Prop37
 90
       50
102
RTVSPost2010PropOp37
 70
     1
102
RTVSPost2010Prop38
140
0.0
102
RTVSPost2010PropOp38
 70
     1
102
RTVSPost2010Prop39
140
1.0
102
RTVSPost2010PropOp39
 70
     1
102
RTVSPost2010Prop40
 90
        0
102
RTVSPost2010PropOp40
 70
     1
102
RTVSPost2010Prop41ColorIndex
 90
       18
102
RTVSPost2010Prop41ColorRGB
 90
        0
102
RTVSPost2010PropOp41
 70
     1
102
RTVSPost2010Prop42
 90
       50
102
RTVSPost2010PropOp42
 70
     1
102
RTVSPost2010Prop43
 90
        3
102
RTVSPost2010PropOp43
 70
     1
102
RTVSPost2010Prop44ColorIndex
 90
        5
102
RTVSPost2010Prop44ColorRGB
 90
      255
102
RTVSPost2010PropOp44
 70
     1
102
RTVSPost2010Prop45
280
     0
102
RTVSPost2010PropOp45
 70
     1
102
RTVSPost2010Prop46
 90
       50
102
RTVSPost2010PropOp46
 70
     1
102
RTVSPost2010Prop47
 90
       50
102
RTVSPost2010PropOp47
 70
     1
102
RTVSPost2010Prop48
 90
       50
102
RTVSPost2010PropOp48
 70
     1
102
RTVSPost2010Prop49
280
     0
102
RTVSPost2010PropOp49
 70
     1
102
RTVSPost2010Prop50
 90
       50
102
RTVSPost2010PropOp50
 70
     1
102
RTVSPost2010Prop51ColorIndex
 90
      256
102
RTVSPost2010Prop51ColorRGB
 90
-16777216
102
RTVSPost2010PropOp51
 70
     0
102
RTVSPost2010Prop52
140
1.0
102
RTVSPost2010PropOp52
 70
     0
102
RTVSPost2010Prop53
 90
        2
102
RTVSPost2010PropOp53
 70
     1
102
RTVSPost2010Prop54
  1
strokes_ogs.tif
102
RTVSPost2010PropOp54
 70
     1
102
RTVSPost2010Prop55
280
     0
102
RTVSPost2010PropOp55
 70
     1
102
RTVSPost2010Prop56
140
1.0
102
RTVSPost2010PropOp56
 70
     1
102
RTVSPost2010Prop57
140
1.0
102
RTVSPost2010PropOp57
 70
     1
  0
XRECORD
  5
370
102
{ACAD_REACTORS
330
36F
102
}
330
36F
100
AcDbXrecord
280
     1
102
RTVSPropertyOp0
 70
     1
102
RTVSPropertyOp1
 70
     1
102
RTVSPropertyOp2
 70
     1
102
RTVSPropertyOp3
 70
     1
102
RTVSPropertyOp4
 70
     1
102
RTVSPropertyOp5
 70
     1
102
RTVSPropertyOp6
 70
     1
102
RTVSPropertyOp7
 70
     1
102
RTVSPropertyOp8
 70
     1
102
RTVSPropertyOp9
 70
     1
102
RTVSPropertyOp10
 70
     1
102
RTVSPropertyOp11
 70
     1
102
RTVSPropertyOp12
 70
     1
102
RTVSPropertyOp13
 70
     1
102
RTVSPropertyOp14
 70
     1
102
RTVSPropertyOp15
 70
     1
102
RTVSPropertyOp16
 70
     1
102
RTVSPropertyOp17
 70
     1
102
RTVSPropertyOp18
 70
     1
102
RTVSPropertyOp19
 70
     1
102
RTVSPropertyOp20
 70
     1
102
RTVSPropertyOp21
 70
     1
102
RTVSPropertyOp22
 70
     1
102
RTVSPropertyOp23
 70
     1
102
RTVSPropertyOp24
 70
     1
102
RTVSPropertyOp25
 70
     1
102
RTVSPropertyOp26
 70
     1
102
RTVSPropertyOp27
 70
     1
102
RTVSPropertyOp28
 70
     1
102
RTVSPropertyOp29
 70
     1
102
RTVSPropertyOp30
 70
     1
102
RTVSPropertyOp31
 70
     1
102
RTVSPropertyOp32
 70
     1
102
RTVSPropertyOp33
 70
     1
102
RTVSPropertyOp34
 70
     1
102
RTVSPropertyOp35
 70
     1
102
RTVSPropertyOp36
 70
     1
102
RTVSPropertyOp37
 70
     1
102
RTVSPropertyOp38
 70
     1
102
RTVSPropertyOp39
 70
     1
102
RTVSPropertyOp40
 70
     1
102
RTVSPropertyOp41
 70
     1
102
RTVSPropertyOp42
 70
     1
102
RTVSPropertyOp43
 70
     1
102
RTVSPropertyOp44
 70
     1
102
RTVSPropertyOp45
 70
     1
102
RTVSPropertyOp46
 70
     1
102
RTVSPropertyOp47
 70
     1
102
RTVSPropertyOp48
 70
     1
102
RTVSPropertyOp49
 70
     1
102
RTVSPropertyOp50
 70
     1
102
RTVSPropertyOp51
 70
     0
102
RTVSPropertyOp52
 70
     0
102
RTVSPropertyOp53
 70
     1
102
RTVSPropertyOp54
 70
     1
102
RTVSPropertyOp55
 70
     1
102
RTVSPropertyOp56
 70
     1
102
RTVSPropertyOp57
 70
     1
102
RTVSPost2010Prop28
280
     0
102
RTVSPost2010PropOp28
 70
     1
102
RTVSPost2010Prop29
280
     1
102
RTVSPost2010PropOp29
 70
     1
102
RTVSPost2010Prop30
280
     1
102
RTVSPost2010PropOp30
 70
     1
102
RTVSPost2010Prop31
280
     0
102
RTVSPost2010PropOp31
 70
     1
102
RTVSPost2010Prop32
280
     0
102
RTVSPost2010PropOp32
 70
     1
102
RTVSPost2010Prop33
280
     0
102
RTVSPost2010PropOp33
 70
     1
102
RTVSPost2010Prop34
280
     0
102
RTVSPost2010PropOp34
 70
     1
102
RTVSPost2010Prop35
280
     0
102
RTVSPost2010PropOp35
 70
     1
102
RTVSPost2010Prop36
280
     0
102
RTVSPost2010PropOp36
 70
     1
102
RTVSPost2010Prop37
 90
       50
102
RTVSPost2010PropOp37
 70
     1
102
RTVSPost2010Prop38
140
0.0
102
RTVSPost2010PropOp38
 70
     1
102
RTVSPost2010Prop39
140
1.0
102
RTVSPost2010PropOp39
 70
     1
102
RTVSPost2010Prop40
 90
        0
102
RTVSPost2010PropOp40
 70
     1
102
RTVSPost2010Prop41ColorIndex
 90
       18
102
RTVSPost2010Prop41ColorRGB
 90
        0
102
RTVSPost2010PropOp41
 70
     1
102
RTVSPost2010Prop42
 90
       50
102
RTVSPost2010PropOp42
 70
     1
102
RTVSPost2010Prop43
 90
        3
102
RTVSPost2010PropOp43
 70
     1
102
RTVSPost2010Prop44ColorIndex
 90
        5
102
RTVSPost2010Prop44ColorRGB
 90
      255
102
RTVSPost2010PropOp44
 70
     1
102
RTVSPost2010Prop45
280
     0
102
RTVSPost2010PropOp45
 70
     1
102
RTVSPost2010Prop46
 90
       50
102
RTVSPost2010PropOp46
 70
     1
102
RTVSPost2010Prop47
 90
       50
102
RTVSPost2010PropOp47
 70
     1
102
RTVSPost2010Prop48
 90
       50
102
RTVSPost2010PropOp48
 70
     1
102
RTVSPost2010Prop49
280
     0
102
RTVSPost2010PropOp49
 70
     1
102
RTVSPost2010Prop50
 90
       50
102
RTVSPost2010PropOp50
 70
     1
102
RTVSPost2010Prop51ColorIndex
 90
      256
102
RTVSPost2010Prop51ColorRGB
 90
-16777216
102
RTVSPost2010PropOp51
 70
     0
102
RTVSPost2010Prop52
140
1.0
102
RTVSPost2010PropOp52
 70
     0
102
RTVSPost2010Prop53
 90
        2
102
RTVSPost2010PropOp53
 70
     1
102
RTVSPost2010Prop54
  1
strokes_ogs.tif
102
RTVSPost2010PropOp54
 70
     1
102
RTVSPost2010Prop55
280
     0
102
RTVSPost2010PropOp55
 70
     1
102
RTVSPost2010Prop56
140
1.0
102
RTVSPost2010PropOp56
 70
     1
102
RTVSPost2010Prop57
140
1.0
102
RTVSPost2010PropOp57
 70
     1
  0
XRECORD
  5
360
102
{ACAD_REACTORS
330
35F
102
}
330
35F
100
AcDbXrecord
280
     1
102
RTVSPropertyOp0
 70
     1
102
RTVSPropertyOp1
 70
     1
102
RTVSPropertyOp2
 70
     1
102
RTVSPropertyOp3
 70
     1
102
RTVSPropertyOp4
 70
     1
102
RTVSPropertyOp5
 70
     1
102
RTVSPropertyOp6
 70
     1
102
RTVSPropertyOp7
 70
     1
102
RTVSPropertyOp8
 70
     1
102
RTVSPropertyOp9
 70
     1
102
RTVSPropertyOp10
 70
     1
102
RTVSPropertyOp11
 70
     1
102
RTVSPropertyOp12
 70
     1
102
RTVSPropertyOp13
 70
     1
102
RTVSPropertyOp14
 70
     1
102
RTVSPropertyOp15
 70
     1
102
RTVSPropertyOp16
 70
     1
102
RTVSPropertyOp17
 70
     1
102
RTVSPropertyOp18
 70
     1
102
RTVSPropertyOp19
 70
     1
102
RTVSPropertyOp20
 70
     1
102
RTVSPropertyOp21
 70
     1
102
RTVSPropertyOp22
 70
     1
102
RTVSPropertyOp23
 70
     1
102
RTVSPropertyOp24
 70
     1
102
RTVSPropertyOp25
 70
     1
102
RTVSPropertyOp26
 70
     1
102
RTVSPropertyOp27
 70
     1
102
RTVSPropertyOp28
 70
     1
102
RTVSPropertyOp29
 70
     1
102
RTVSPropertyOp30
 70
     1
102
RTVSPropertyOp31
 70
     1
102
RTVSPropertyOp32
 70
     1
102
RTVSPropertyOp33
 70
     1
102
RTVSPropertyOp34
 70
     1
102
RTVSPropertyOp35
 70
     1
102
RTVSPropertyOp36
 70
     1
102
RTVSPropertyOp37
 70
     1
102
RTVSPropertyOp38
 70
     1
102
RTVSPropertyOp39
 70
     1
102
RTVSPropertyOp40
 70
     1
102
RTVSPropertyOp41
 70
     1
102
RTVSPropertyOp42
 70
     1
102
RTVSPropertyOp43
 70
     1
102
RTVSPropertyOp44
 70
     1
102
RTVSPropertyOp45
 70
     1
102
RTVSPropertyOp46
 70
     1
102
RTVSPropertyOp47
 70
     1
102
RTVSPropertyOp48
 70
     1
102
RTVSPropertyOp49
 70
     1
102
RTVSPropertyOp50
 70
     1
102
RTVSPropertyOp51
 70
     0
102
RTVSPropertyOp52
 70
     0
102
RTVSPropertyOp53
 70
     1
102
RTVSPropertyOp54
 70
     1
102
RTVSPropertyOp55
 70
     1
102
RTVSPropertyOp56
 70
     1
102
RTVSPropertyOp57
 70
     1
102
RTVSPost2010Prop28
280
     0
102
RTVSPost2010PropOp28
 70
     1
102
RTVSPost2010Prop29
280
     1
102
RTVSPost2010PropOp29
 70
     1
102
RTVSPost2010Prop30
280
     1
102
RTVSPost2010PropOp30
 70
     1
102
RTVSPost2010Prop31
280
     0
102
RTVSPost2010PropOp31
 70
     1
102
RTVSPost2010Prop32
280
     0
102
RTVSPost2010PropOp32
 70
     1
102
RTVSPost2010Prop33
280
     0
102
RTVSPost2010PropOp33
 70
     1
102
RTVSPost2010Prop34
280
     0
102
RTVSPost2010PropOp34
 70
     1
102
RTVSPost2010Prop35
280
     0
102
RTVSPost2010PropOp35
 70
     1
102
RTVSPost2010Prop36
280
     0
102
RTVSPost2010PropOp36
 70
     1
102
RTVSPost2010Prop37
 90
       50
102
RTVSPost2010PropOp37
 70
     1
102
RTVSPost2010Prop38
140
0.0
102
RTVSPost2010PropOp38
 70
     1
102
RTVSPost2010Prop39
140
1.0
102
RTVSPost2010PropOp39
 70
     1
102
RTVSPost2010Prop40
 90
        0
102
RTVSPost2010PropOp40
 70
     1
102
RTVSPost2010Prop41ColorIndex
 90
       18
102
RTVSPost2010Prop41ColorRGB
 90
        0
102
RTVSPost2010PropOp41
 70
     1
102
RTVSPost2010Prop42
 90
       50
102
RTVSPost2010PropOp42
 70
     1
102
RTVSPost2010Prop43
 90
        3
102
RTVSPost2010PropOp43
 70
     1
102
RTVSPost2010Prop44ColorIndex
 90
        5
102
RTVSPost2010Prop44ColorRGB
 90
      255
102
RTVSPost2010PropOp44
 70
     1
102
RTVSPost2010Prop45
280
     0
102
RTVSPost2010PropOp45
 70
     1
102
RTVSPost2010Prop46
 90
       50
102
RTVSPost2010PropOp46
 70
     1
102
RTVSPost2010Prop47
 90
       50
102
RTVSPost2010PropOp47
 70
     1
102
RTVSPost2010Prop48
 90
       50
102
RTVSPost2010PropOp48
 70
     1
102
RTVSPost2010Prop49
280
     0
102
RTVSPost2010PropOp49
 70
     1
102
RTVSPost2010Prop50
 90
       50
102
RTVSPost2010PropOp50
 70
     1
102
RTVSPost2010Prop51ColorIndex
 90
      256
102
RTVSPost2010Prop51ColorRGB
 90
-16777216
102
RTVSPost2010PropOp51
 70
     0
102
RTVSPost2010Prop52
140
1.0
102
RTVSPost2010PropOp52
 70
     0
102
RTVSPost2010Prop53
 90
        2
102
RTVSPost2010PropOp53
 70
     1
102
RTVSPost2010Prop54
  1
strokes_ogs.tif
102
RTVSPost2010PropOp54
 70
     1
102
RTVSPost2010Prop55
280
     0
102
RTVSPost2010PropOp55
 70
     1
102
RTVSPost2010Prop56
140
1.0
102
RTVSPost2010PropOp56
 70
     1
102
RTVSPost2010Prop57
140
1.0
102
RTVSPost2010PropOp57
 70
     1
  0
XRECORD
  5
352
102
{ACAD_REACTORS
330
351
102
}
330
351
100
AcDbXrecord
280
     1
102
RTVSPropertyOp0
 70
     1
102
RTVSPropertyOp1
 70
     1
102
RTVSPropertyOp2
 70
     1
102
RTVSPropertyOp3
 70
     1
102
RTVSPropertyOp4
 70
     1
102
RTVSPropertyOp5
 70
     1
102
RTVSPropertyOp6
 70
     1
102
RTVSPropertyOp7
 70
     1
102
RTVSPropertyOp8
 70
     1
102
RTVSPropertyOp9
 70
     1
102
RTVSPropertyOp10
 70
     1
102
RTVSPropertyOp11
 70
     1
102
RTVSPropertyOp12
 70
     1
102
RTVSPropertyOp13
 70
     1
102
RTVSPropertyOp14
 70
     1
102
RTVSPropertyOp15
 70
     1
102
RTVSPropertyOp16
 70
     1
102
RTVSPropertyOp17
 70
     1
102
RTVSPropertyOp18
 70
     1
102
RTVSPropertyOp19
 70
     1
102
RTVSPropertyOp20
 70
     1
102
RTVSPropertyOp21
 70
     1
102
RTVSPropertyOp22
 70
     1
102
RTVSPropertyOp23
 70
     1
102
RTVSPropertyOp24
 70
     1
102
RTVSPropertyOp25
 70
     1
102
RTVSPropertyOp26
 70
     1
102
RTVSPropertyOp27
 70
     1
102
RTVSPropertyOp28
 70
     1
102
RTVSPropertyOp29
 70
     1
102
RTVSPropertyOp30
 70
     1
102
RTVSPropertyOp31
 70
     1
102
RTVSPropertyOp32
 70
     1
102
RTVSPropertyOp33
 70
     1
102
RTVSPropertyOp34
 70
     1
102
RTVSPropertyOp35
 70
     1
102
RTVSPropertyOp36
 70
     1
102
RTVSPropertyOp37
 70
     1
102
RTVSPropertyOp38
 70
     1
102
RTVSPropertyOp39
 70
     1
102
RTVSPropertyOp40
 70
     1
102
RTVSPropertyOp41
 70
     1
102
RTVSPropertyOp42
 70
     1
102
RTVSPropertyOp43
 70
     1
102
RTVSPropertyOp44
 70
     1
102
RTVSPropertyOp45
 70
     1
102
RTVSPropertyOp46
 70
     1
102
RTVSPropertyOp47
 70
     1
102
RTVSPropertyOp48
 70
     1
102
RTVSPropertyOp49
 70
     1
102
RTVSPropertyOp50
 70
     1
102
RTVSPropertyOp51
 70
     0
102
RTVSPropertyOp52
 70
     0
102
RTVSPropertyOp53
 70
     1
102
RTVSPropertyOp54
 70
     1
102
RTVSPropertyOp55
 70
     1
102
RTVSPropertyOp56
 70
     1
102
RTVSPropertyOp57
 70
     1
102
RTVSPost2010Prop28
280
     0
102
RTVSPost2010PropOp28
 70
     1
102
RTVSPost2010Prop29
280
     1
102
RTVSPost2010PropOp29
 70
     1
102
RTVSPost2010Prop30
280
     1
102
RTVSPost2010PropOp30
 70
     1
102
RTVSPost2010Prop31
280
     0
102
RTVSPost2010PropOp31
 70
     1
102
RTVSPost2010Prop32
280
     0
102
RTVSPost2010PropOp32
 70
     1
102
RTVSPost2010Prop33
280
     0
102
RTVSPost2010PropOp33
 70
     1
102
RTVSPost2010Prop34
280
     0
102
RTVSPost2010PropOp34
 70
     1
102
RTVSPost2010Prop35
280
     0
102
RTVSPost2010PropOp35
 70
     1
102
RTVSPost2010Prop36
280
     0
102
RTVSPost2010PropOp36
 70
     1
102
RTVSPost2010Prop37
 90
       50
102
RTVSPost2010PropOp37
 70
     1
102
RTVSPost2010Prop38
140
0.0
102
RTVSPost2010PropOp38
 70
     1
102
RTVSPost2010Prop39
140
1.0
102
RTVSPost2010PropOp39
 70
     1
102
RTVSPost2010Prop40
 90
        0
102
RTVSPost2010PropOp40
 70
     1
102
RTVSPost2010Prop41ColorIndex
 90
       18
102
RTVSPost2010Prop41ColorRGB
 90
        0
102
RTVSPost2010PropOp41
 70
     1
102
RTVSPost2010Prop42
 90
       50
102
RTVSPost2010PropOp42
 70
     1
102
RTVSPost2010Prop43
 90
        3
102
RTVSPost2010PropOp43
 70
     1
102
RTVSPost2010Prop44ColorIndex
 90
        5
102
RTVSPost2010Prop44ColorRGB
 90
      255
102
RTVSPost2010PropOp44
 70
     1
102
RTVSPost2010Prop45
280
     0
102
RTVSPost2010PropOp45
 70
     1
102
RTVSPost2010Prop46
 90
       50
102
RTVSPost2010PropOp46
 70
     1
102
RTVSPost2010Prop47
 90
       50
102
RTVSPost2010PropOp47
 70
     1
102
RTVSPost2010Prop48
 90
       50
102
RTVSPost2010PropOp48
 70
     1
102
RTVSPost2010Prop49
280
     0
102
RTVSPost2010PropOp49
 70
     1
102
RTVSPost2010Prop50
 90
       50
102
RTVSPost2010PropOp50
 70
     1
102
RTVSPost2010Prop51ColorIndex
 90
      256
102
RTVSPost2010Prop51ColorRGB
 90
-16777216
102
RTVSPost2010PropOp51
 70
     0
102
RTVSPost2010Prop52
140
1.0
102
RTVSPost2010PropOp52
 70
     0
102
RTVSPost2010Prop53
 90
        2
102
RTVSPost2010PropOp53
 70
     1
102
RTVSPost2010Prop54
  1
strokes_ogs.tif
102
RTVSPost2010PropOp54
 70
     1
102
RTVSPost2010Prop55
280
     0
102
RTVSPost2010PropOp55
 70
     1
102
RTVSPost2010Prop56
140
1.0
102
RTVSPost2010PropOp56
 70
     1
102
RTVSPost2010Prop57
140
1.0
102
RTVSPost2010PropOp57
 70
     1
  0
XRECORD
  5
372
102
{ACAD_REACTORS
330
371
102
}
330
371
100
AcDbXrecord
280
     1
102
RTVSPropertyOp0
 70
     1
102
RTVSPropertyOp1
 70
     1
102
RTVSPropertyOp2
 70
     1
102
RTVSPropertyOp3
 70
     1
102
RTVSPropertyOp4
 70
     1
102
RTVSPropertyOp5
 70
     1
102
RTVSPropertyOp6
 70
     1
102
RTVSPropertyOp7
 70
     1
102
RTVSPropertyOp8
 70
     1
102
RTVSPropertyOp9
 70
     1
102
RTVSPropertyOp10
 70
     1
102
RTVSPropertyOp11
 70
     1
102
RTVSPropertyOp12
 70
     1
102
RTVSPropertyOp13
 70
     1
102
RTVSPropertyOp14
 70
     1
102
RTVSPropertyOp15
 70
     1
102
RTVSPropertyOp16
 70
     1
102
RTVSPropertyOp17
 70
     1
102
RTVSPropertyOp18
 70
     1
102
RTVSPropertyOp19
 70
     1
102
RTVSPropertyOp20
 70
     1
102
RTVSPropertyOp21
 70
     1
102
RTVSPropertyOp22
 70
     1
102
RTVSPropertyOp23
 70
     1
102
RTVSPropertyOp24
 70
     1
102
RTVSPropertyOp25
 70
     1
102
RTVSPropertyOp26
 70
     1
102
RTVSPropertyOp27
 70
     1
102
RTVSPropertyOp28
 70
     1
102
RTVSPropertyOp29
 70
     1
102
RTVSPropertyOp30
 70
     1
102
RTVSPropertyOp31
 70
     1
102
RTVSPropertyOp32
 70
     1
102
RTVSPropertyOp33
 70
     1
102
RTVSPropertyOp34
 70
     1
102
RTVSPropertyOp35
 70
     1
102
RTVSPropertyOp36
 70
     1
102
RTVSPropertyOp37
 70
     1
102
RTVSPropertyOp38
 70
     1
102
RTVSPropertyOp39
 70
     1
102
RTVSPropertyOp40
 70
     1
102
RTVSPropertyOp41
 70
     1
102
RTVSPropertyOp42
 70
     1
102
RTVSPropertyOp43
 70
     1
102
RTVSPropertyOp44
 70
     1
102
RTVSPropertyOp45
 70
     1
102
RTVSPropertyOp46
 70
     1
102
RTVSPropertyOp47
 70
     1
102
RTVSPropertyOp48
 70
     1
102
RTVSPropertyOp49
 70
     1
102
RTVSPropertyOp50
 70
     1
102
RTVSPropertyOp51
 70
     0
102
RTVSPropertyOp52
 70
     0
102
RTVSPropertyOp53
 70
     1
102
RTVSPropertyOp54
 70
     1
102
RTVSPropertyOp55
 70
     1
102
RTVSPropertyOp56
 70
     1
102
RTVSPropertyOp57
 70
     1
102
RTVSPost2010Prop28
280
     0
102
RTVSPost2010PropOp28
 70
     1
102
RTVSPost2010Prop29
280
     1
102
RTVSPost2010PropOp29
 70
     1
102
RTVSPost2010Prop30
280
     1
102
RTVSPost2010PropOp30
 70
     1
102
RTVSPost2010Prop31
280
     0
102
RTVSPost2010PropOp31
 70
     1
102
RTVSPost2010Prop32
280
     0
102
RTVSPost2010PropOp32
 70
     1
102
RTVSPost2010Prop33
280
     0
102
RTVSPost2010PropOp33
 70
     1
102
RTVSPost2010Prop34
280
     0
102
RTVSPost2010PropOp34
 70
     1
102
RTVSPost2010Prop35
280
     0
102
RTVSPost2010PropOp35
 70
     1
102
RTVSPost2010Prop36
280
     0
102
RTVSPost2010PropOp36
 70
     1
102
RTVSPost2010Prop37
 90
       50
102
RTVSPost2010PropOp37
 70
     1
102
RTVSPost2010Prop38
140
0.0
102
RTVSPost2010PropOp38
 70
     1
102
RTVSPost2010Prop39
140
1.0
102
RTVSPost2010PropOp39
 70
     1
102
RTVSPost2010Prop40
 90
        0
102
RTVSPost2010PropOp40
 70
     1
102
RTVSPost2010Prop41ColorIndex
 90
       18
102
RTVSPost2010Prop41ColorRGB
 90
        0
102
RTVSPost2010PropOp41
 70
     1
102
RTVSPost2010Prop42
 90
       50
102
RTVSPost2010PropOp42
 70
     1
102
RTVSPost2010Prop43
 90
        3
102
RTVSPost2010PropOp43
 70
     1
102
RTVSPost2010Prop44ColorIndex
 90
        5
102
RTVSPost2010Prop44ColorRGB
 90
      255
102
RTVSPost2010PropOp44
 70
     1
102
RTVSPost2010Prop45
280
     0
102
RTVSPost2010PropOp45
 70
     1
102
RTVSPost2010Prop46
 90
       50
102
RTVSPost2010PropOp46
 70
     1
102
RTVSPost2010Prop47
 90
       50
102
RTVSPost2010PropOp47
 70
     1
102
RTVSPost2010Prop48
 90
       50
102
RTVSPost2010PropOp48
 70
     1
102
RTVSPost2010Prop49
280
     0
102
RTVSPost2010PropOp49
 70
     1
102
RTVSPost2010Prop50
 90
       50
102
RTVSPost2010PropOp50
 70
     1
102
RTVSPost2010Prop51ColorIndex
 90
      256
102
RTVSPost2010Prop51ColorRGB
 90
-16777216
102
RTVSPost2010PropOp51
 70
     0
102
RTVSPost2010Prop52
140
1.0
102
RTVSPost2010PropOp52
 70
     0
102
RTVSPost2010Prop53
 90
        2
102
RTVSPost2010PropOp53
 70
     1
102
RTVSPost2010Prop54
  1
strokes_ogs.tif
102
RTVSPost2010PropOp54
 70
     1
102
RTVSPost2010Prop55
280
     0
102
RTVSPost2010PropOp55
 70
     1
102
RTVSPost2010Prop56
140
1.0
102
RTVSPost2010PropOp56
 70
     1
102
RTVSPost2010Prop57
140
1.0
102
RTVSPost2010PropOp57
 70
     1
  0
ENDSEC
  0
EOF
