  0
SECTION
  2
HEADER
  9
$ACADVER
  1
AC1018
  9
$ACADMAINTVER
 70
     0
  9
$DWGCODEPAGE
  3
ANSI_1252
  9
$INSBASE
 10
0.0
 20
0.0
 30
0.0
  9
$EXTMIN
 10
-4.014126542894565
 20
-7.53355895505322
 30
0.0
  9
$EXTMAX
 10
101.2511719596233
 20
52.41755428215291
 30
19.13405394245141
  9
$LIMMIN
 10
0.0
 20
0.0
  9
$LIMMAX
 10
12.0
 20
9.0
  9
$ORTHOMODE
 70
     0
  9
$REGENMODE
 70
     1
  9
$FILLMODE
 70
     1
  9
$QTEXTMODE
 70
     0
  9
$MIRRTEXT
 70
     1
  9
$LTSCALE
 40
0.0393700787401575
  9
$ATTMODE
 70
     1
  9
$TEXTSIZE
 40
0.2
  9
$TRACEWID
 40
0.05
  9
$TEXTSTYLE
  7
Standard
  9
$CLAYER
  8
0
  9
$CELTYPE
  6
ByLayer
  9
$CECOLOR
 62
   256
  9
$CELTSCALE
 40
1.0
  9
$DISPSILH
 70
     0
  9
$DIMSCALE
 40
1.0
  9
$DIMASZ
 40
0.18
  9
$DIMEXO
 40
0.0625
  9
$DIMDLI
 40
0.38
  9
$DIMRND
 40
0.0
  9
$DIMDLE
 40
0.0
  9
$DIMEXE
 40
0.18
  9
$DIMTP
 40
0.0
  9
$DIMTM
 40
0.0
  9
$DIMTXT
 40
0.18
  9
$DIMCEN
 40
0.09
  9
$DIMTSZ
 40
0.0
  9
$DIMTOL
 70
     0
  9
$DIMLIM
 70
     0
  9
$DIMTIH
 70
     1
  9
$DIMTOH
 70
     1
  9
$DIMSE1
 70
     0
  9
$DIMSE2
 70
     0
  9
$DIMTAD
 70
     0
  9
$DIMZIN
 70
     0
  9
$DIMBLK
  1

  9
$DIMASO
 70
     1
  9
$DIMSHO
 70
     1
  9
$DIMPOST
  1

  9
$DIMAPOST
  1

  9
$DIMALT
 70
     0
  9
$DIMALTD
 70
     2
  9
$DIMALTF
 40
25.4
  9
$DIMLFAC
 40
1.0
  9
$DIMTOFL
 70
     0
  9
$DIMTVP
 40
0.0
  9
$DIMTIX
 70
     0
  9
$DIMSOXD
 70
     0
  9
$DIMSAH
 70
     0
  9
$DIMBLK1
  1

  9
$DIMBLK2
  1

  9
$DIMSTYLE
  2
Standard
  9
$DIMCLRD
 70
     0
  9
$DIMCLRE
 70
     0
  9
$DIMCLRT
 70
     0
  9
$DIMTFAC
 40
1.0
  9
$DIMGAP
 40
0.09
  9
$DIMJUST
 70
     0
  9
$DIMSD1
 70
     0
  9
$DIMSD2
 70
     0
  9
$DIMTOLJ
 70
     1
  9
$DIMTZIN
 70
     0
  9
$DIMALTZ
 70
     0
  9
$DIMALTTZ
 70
     0
  9
$DIMUPT
 70
     0
  9
$DIMDEC
 70
     4
  9
$DIMTDEC
 70
     4
  9
$DIMALTU
 70
     2
  9
$DIMALTTD
 70
     2
  9
$DIMTXSTY
  7
Standard
  9
$DIMAUNIT
 70
     0
  9
$DIMADEC
 70
     0
  9
$DIMALTRND
 40
0.0
  9
$DIMAZIN
 70
     0
  9
$DIMDSEP
 70
    46
  9
$DIMATFIT
 70
     3
  9
$DIMFRAC
 70
     0
  9
$DIMLDRBLK
  1

  9
$DIMLUNIT
 70
     2
  9
$DIMLWD
 70
    -2
  9
$DIMLWE
 70
    -2
  9
$DIMTMOVE
 70
     2
  9
$LUNITS
 70
     2
  9
$LUPREC
 70
     2
  9
$SKETCHINC
 40
0.1
  9
$FILLETRAD
 40
0.5
  9
$AUNITS
 70
     0
  9
$AUPREC
 70
     0
  9
$MENU
  1
.
  9
$ELEVATION
 40
0.0
  9
$PELEVATION
 40
0.0
  9
$THICKNESS
 40
0.0
  9
$LIMCHECK
 70
     0
  9
$CHAMFERA
 40
0.0
  9
$CHAMFERB
 40
0.0
  9
$CHAMFERC
 40
0.0
  9
$CHAMFERD
 40
0.0
  9
$SKPOLY
 70
     0
  9
$TDCREATE
 40
2457798.585055185
  9
$TDUCREATE
 40
2457798.918388519
  9
$TDUPDATE
 40
2457798.585067396
  9
$TDUUPDATE
 40
2457798.918400729
  9
$TDINDWG
 40
0.0000000116
  9
$TDUSRTIMER
 40
0.0000000116
  9
$USRTIMER
 70
     1
  9
$ANGBASE
 50
0.0
  9
$ANGDIR
 70
     0
  9
$PDMODE
 70
     0
  9
$PDSIZE
 40
0.0
  9
$PLINEWID
 40
0.0
  9
$SPLFRAME
 70
     0
  9
$SPLINETYPE
 70
     6
  9
$SPLINESEGS
 70
     8
  9
$HANDSEED
  5
296
  9
$SURFTAB1
 70
     6
  9
$SURFTAB2
 70
     6
  9
$SURFTYPE
 70
     6
  9
$SURFU
 70
     6
  9
$SURFV
 70
     6
  9
$UCSBASE
  2

  9
$UCSNAME
  2

  9
$UCSORG
 10
0.0
 20
0.0
 30
0.0
  9
$UCSXDIR
 10
1.0
 20
0.0
 30
0.0
  9
$UCSYDIR
 10
0.0
 20
1.0
 30
0.0
  9
$UCSORTHOREF
  2

  9
$UCSORTHOVIEW
 70
     0
  9
$UCSORGTOP
 10
0.0
 20
0.0
 30
0.0
  9
$UCSORGBOTTOM
 10
0.0
 20
0.0
 30
0.0
  9
$UCSORGLEFT
 10
0.0
 20
0.0
 30
0.0
  9
$UCSORGRIGHT
 10
0.0
 20
0.0
 30
0.0
  9
$UCSORGFRONT
 10
0.0
 20
0.0
 30
0.0
  9
$UCSORGBACK
 10
0.0
 20
0.0
 30
0.0
  9
$PUCSBASE
  2

  9
$PUCSNAME
  2

  9
$PUCSORG
 10
0.0
 20
0.0
 30
0.0
  9
$PUCSXDIR
 10
1.0
 20
0.0
 30
0.0
  9
$PUCSYDIR
 10
0.0
 20
1.0
 30
0.0
  9
$PUCSORTHOREF
  2

  9
$PUCSORTHOVIEW
 70
     0
  9
$PUCSORGTOP
 10
0.0
 20
0.0
 30
0.0
  9
$PUCSORGBOTTOM
 10
0.0
 20
0.0
 30
0.0
  9
$PUCSORGLEFT
 10
0.0
 20
0.0
 30
0.0
  9
$PUCSORGRIGHT
 10
0.0
 20
0.0
 30
0.0
  9
$PUCSORGFRONT
 10
0.0
 20
0.0
 30
0.0
  9
$PUCSORGBACK
 10
0.0
 20
0.0
 30
0.0
  9
$USERI1
 70
     0
  9
$USERI2
 70
     0
  9
$USERI3
 70
     0
  9
$USERI4
 70
     0
  9
$USERI5
 70
     0
  9
$USERR1
 40
0.0
  9
$USERR2
 40
0.0
  9
$USERR3
 40
0.0
  9
$USERR4
 40
0.0
  9
$USERR5
 40
0.0
  9
$WORLDVIEW
 70
     1
  9
$SHADEDGE
 70
     3
  9
$SHADEDIF
 70
    70
  9
$TILEMODE
 70
     1
  9
$MAXACTVP
 70
    64
  9
$PINSBASE
 10
0.0
 20
0.0
 30
0.0
  9
$PLIMCHECK
 70
     0
  9
$PEXTMIN
 10
1.000000000000000E+20
 20
1.000000000000000E+20
 30
1.000000000000000E+20
  9
$PEXTMAX
 10
-1.000000000000000E+20
 20
-1.000000000000000E+20
 30
-1.000000000000000E+20
  9
$PLIMMIN
 10
0.0
 20
0.0
  9
$PLIMMAX
 10
12.0
 20
9.0
  9
$UNITMODE
 70
     0
  9
$VISRETAIN
 70
     1
  9
$PLINEGEN
 70
     0
  9
$PSLTSCALE
 70
     1
  9
$TREEDEPTH
 70
  3020
  9
$CMLSTYLE
  2
Standard
  9
$CMLJUST
 70
     0
  9
$CMLSCALE
 40
1.0
  9
$PROXYGRAPHICS
 70
     1
  9
$MEASUREMENT
 70
     0
  9
$CELWEIGHT
370
    -1
  9
$ENDCAPS
280
     0
  9
$JOINSTYLE
280
     0
  9
$LWDISPLAY
290
     0
  9
$INSUNITS
 70
     1
  9
$HYPERLINKBASE
  1

  9
$STYLESHEET
  1

  9
$XEDIT
290
     1
  9
$CEPSNTYPE
380
     0
  9
$PSTYLEMODE
290
     1
  9
$FINGERPRINTGUID
  2
{8C425FF6-D1DD-411C-9A57-749A17293D88}
  9
$VERSIONGUID
  2
{FAEB1C32-E019-11D5-929B-00C0DF256EC4}
  9
$EXTNAMES
290
     1
  9
$PSVPSCALE
 40
0.0
  9
$OLESTARTUP
290
     0
  9
$SORTENTS
280
   127
  9
$INDEXCTL
280
     0
  9
$HIDETEXT
280
     1
  9
$XCLIPFRAME
290
     0
  9
$HALOGAP
280
     0
  9
$OBSCOLOR
 70
   257
  9
$OBSLTYPE
280
     0
  9
$INTERSECTIONDISPLAY
280
     0
  9
$INTERSECTIONCOLOR
 70
   257
  9
$DIMASSOC
280
     2
  9
$PROJECTNAME
  1

  0
ENDSEC
  0
SECTION
  2
CLASSES
  0
CLASS
  1
ACDBDICTIONARYWDFLT
  2
AcDbDictionaryWithDefault
  3
ObjectDBX Classes
 90
        0
 91
        4
280
     0
281
     0
  0
CLASS
  1
VISUALSTYLE
  2
AcDbVisualStyle
  3
ObjectDBX Classes
 90
     4095
 91
        4
280
     0
281
     0
  0
CLASS
  1
MATERIAL
  2
AcDbMaterial
  3
ObjectDBX Classes
 90
     1153
 91
        4
280
     0
281
     0
  0
CLASS
  1
SCALE
  2
AcDbScale
  3
ObjectDBX Classes
 90
     1153
 91
        4
280
     0
281
     0
  0
CLASS
  1
SUN
  2
AcDbSun
  3
SCENEOE
 90
     1153
 91
        4
280
     0
281
     0
  0
CLASS
  1
DICTIONARYVAR
  2
AcDbDictionaryVar
  3
ObjectDBX Classes
 90
        0
 91
        4
280
     0
281
     0
  0
ENDSEC
  0
SECTION
  2
TABLES
  0
TABLE
  2
VPORT
  5
8
330
0
100
AcDbSymbolTable
 70
     1
  0
VPORT
  5
29
330
8
100
AcDbSymbolTableRecord
100
AcDbViewportTableRecord
  2
*Active
 70
     0
 10
0.0
 20
0.0
 11
1.0
 21
1.0
 12
5.996743256542467
 22
2.477310844383801
 13
0.0
 23
0.0
 14
0.5
 24
0.5
 15
0.5
 25
0.5
 16
0.0
 26
0.0
 36
1.0
 17
0.0
 27
0.0
 37
0.0
 40
20.42217439085152
 41
1.000000000000001
 42
50.0
 43
0.0
 44
0.0
 50
0.0
 51
0.0
 71
     0
 72
   100
 73
     1
 74
     3
 75
     0
 76
     0
 77
     0
 78
     0
281
     0
 65
     1
110
0.0
120
0.0
130
0.0
111
1.0
121
0.0
131
0.0
112
0.0
122
1.0
132
0.0
 79
     0
146
0.0
  0
ENDTAB
  0
TABLE
  2
LTYPE
  5
5
330
0
100
AcDbSymbolTable
 70
     1
  0
LTYPE
  5
14
330
5
100
AcDbSymbolTableRecord
100
AcDbLinetypeTableRecord
  2
ByBlock
 70
     0
  3

 72
    65
 73
     0
 40
0.0
  0
LTYPE
  5
15
330
5
100
AcDbSymbolTableRecord
100
AcDbLinetypeTableRecord
  2
ByLayer
 70
     0
  3

 72
    65
 73
     0
 40
0.0
  0
LTYPE
  5
16
330
5
100
AcDbSymbolTableRecord
100
AcDbLinetypeTableRecord
  2
Continuous
 70
     0
  3
Solid line
 72
    65
 73
     0
 40
0.0
  0
ENDTAB
  0
TABLE
  2
LAYER
  5
2
330
0
100
AcDbSymbolTable
 70
     4
  0
LAYER
  5
10
330
2
100
AcDbSymbolTableRecord
100
AcDbLayerTableRecord
  2
0
 70
     0
 62
     7
  6
Continuous
370
    -3
390
F
  0
LAYER
  5
6A
330
2
100
AcDbSymbolTableRecord
100
AcDbLayerTableRecord
  2
20x20
 70
     0
 62
    18
420
        0
  6
Continuous
370
    -3
390
F
  0
LAYER
  5
18A
330
2
100
AcDbSymbolTableRecord
100
AcDbLayerTableRecord
  2
20x20$Glass
 70
     0
 62
    18
420
        0
  6
Continuous
370
    -3
390
F
  0
LAYER
  5
1C3
330
2
100
AcDbSymbolTableRecord
100
AcDbLayerTableRecord
  2
Make2D$visible$lines
 70
     0
 62
    18
420
        0
  6
Continuous
370
    -3
390
F
  0
ENDTAB
  0
TABLE
  2
STYLE
  5
3
330
0
100
AcDbSymbolTable
 70
     1
  0
STYLE
  5
11
330
3
100
AcDbSymbolTableRecord
100
AcDbTextStyleTableRecord
  2
Standard
 70
     0
 40
0.0
 41
1.0
 50
0.0
 71
     0
 42
0.2
  3
txt
  4

  0
ENDTAB
  0
TABLE
  2
VIEW
  5
6
330
0
100
AcDbSymbolTable
 70
     0
  0
ENDTAB
  0
TABLE
  2
UCS
  5
7
330
0
100
AcDbSymbolTable
 70
     0
  0
ENDTAB
  0
TABLE
  2
APPID
  5
9
330
0
100
AcDbSymbolTable
 70
     1
  0
APPID
  5
12
330
9
100
AcDbSymbolTableRecord
100
AcDbRegAppTableRecord
  2
ACAD
 70
     0
  0
ENDTAB
  0
TABLE
  2
DIMSTYLE
  5
A
330
0
100
AcDbSymbolTable
 70
     1
100
AcDbDimStyleTable
  0
DIMSTYLE
105
27
330
A
100
AcDbSymbolTableRecord
100
AcDbDimStyleTableRecord
  2
Standard
 70
     0
178
     0
340
11
  0
ENDTAB
  0
TABLE
  2
BLOCK_RECORD
  5
1
330
0
100
AcDbSymbolTable
 70
     1
  0
BLOCK_RECORD
  5
1F
330
1
100
AcDbSymbolTableRecord
100
AcDbBlockTableRecord
  2
*Model_Space
340
22
  0
BLOCK_RECORD
  5
1B
330
1
100
AcDbSymbolTableRecord
100
AcDbBlockTableRecord
  2
*Paper_Space
340
1E
  0
BLOCK_RECORD
  5
23
330
1
100
AcDbSymbolTableRecord
100
AcDbBlockTableRecord
  2
*Paper_Space0
340
26
  0
ENDTAB
  0
ENDSEC
  0
SECTION
  2
BLOCKS
  0
BLOCK
  5
20
330
1F
100
AcDbEntity
  8
0
100
AcDbBlockBegin
  2
*Model_Space
 70
     0
 10
0.0
 20
0.0
 30
0.0
  3
*Model_Space
  1
*Model_Space
  0
ENDBLK
  5
21
330
1F
100
AcDbEntity
  8
0
100
AcDbBlockEnd
  0
BLOCK
  5
1C
330
1B
100
AcDbEntity
 67
     1
  8
0
100
AcDbBlockBegin
  2
*Paper_Space
 70
     0
 10
0.0
 20
0.0
 30
0.0
  3
*Paper_Space
  1
*Paper_Space
  0
ENDBLK
  5
1D
330
1B
100
AcDbEntity
 67
     1
  8
0
100
AcDbBlockEnd
  0
BLOCK
  5
24
330
23
100
AcDbEntity
  8
0
100
AcDbBlockBegin
  2
*Paper_Space0
 70
     0
 10
0.0
 20
0.0
 30
0.0
  3
*Paper_Space0
  1
*Paper_Space0
  0
ENDBLK
  5
25
330
23
100
AcDbEntity
  8
0
100
AcDbBlockEnd
  0
ENDSEC
  0
SECTION
  2
ENTITIES
  0
LINE
  5
6B
330
1F
100
AcDbEntity
  8
20x20
100
AcDbLine
 10
-2.162215514002515
 20
-6.05684392681619
 30
1.245242562543951
 11
-2.053256743485053
 21
-5.947890941518311
 31
0.0
  0
LINE
  5
6C
330
1F
100
AcDbEntity
  8
20x20
100
AcDbLine
 10
-2.053256743485053
 20
-5.947890941518311
 30
0.0
 11
14.42194731307582
 21
-5.947689155616194
 31
0.0
  0
LINE
  5
6D
330
1F
100
AcDbEntity
  8
20x20
100
AcDbLine
 10
14.42194731307582
 20
-5.947689155616194
 30
0.0
 11
16.00759657017265
 21
-7.533543875580693
 31
18.12405394245141
  0
LINE
  5
6E
330
1F
100
AcDbEntity
  8
20x20
100
AcDbLine
 10
16.00759657017265
 20
-7.533543875580693
 30
18.12405394245141
 11
14.75285798410694
 21
-7.53355895505322
 31
18.12405262299756
  0
LINE
  5
6F
330
1F
100
AcDbEntity
  8
20x20
100
AcDbLine
 10
14.75285798410694
 20
-7.53355895505322
 30
18.12405262299756
 11
13.27615340362016
 21
-6.056663028367764
 31
1.245242032306574
  0
LINE
  5
70
330
1F
100
AcDbEntity
  8
20x20
100
AcDbLine
 10
13.27615340362016
 20
-6.056663028367764
 30
1.245242032306574
 11
-2.162215514002515
 21
-6.05684392681619
 31
1.245242562543951
  0
LINE
  5
71
330
1F
100
AcDbEntity
  8
20x20
100
AcDbLine
 10
-2.162215514002515
 20
-6.05684392681619
 30
1.245242562543951
 11
-2.053256743485053
 21
-5.947890941518311
 31
0.0
  0
LINE
  5
72
330
1F
100
AcDbEntity
  8
20x20
100
AcDbLine
 10
-2.162215514002515
 20
-6.05684392681619
 30
1.245242562543951
 11
-2.162215514002515
 21
-5.683270915031783
 31
1.277925966074323
  0
LINE
  5
73
330
1F
100
AcDbEntity
  8
20x20
100
AcDbLine
 10
-2.162215514002515
 20
-5.683270915031783
 30
1.277925966074323
 11
-2.053256743485053
 21
-5.574317929733895
 31
0.0326834035303716
  0
LINE
  5
74
330
1F
100
AcDbEntity
  8
20x20
100
AcDbLine
 10
13.27615340362016
 20
-6.056663028367764
 30
1.245242032306574
 11
-2.162215514002515
 21
-6.05684392681619
 31
1.245242562543951
  0
LINE
  5
75
330
1F
100
AcDbEntity
  8
20x20
100
AcDbLine
 10
14.75285798410694
 20
-7.53355895505322
 30
18.12405262299756
 11
13.27615340362016
 21
-6.056663028367764
 31
1.245242032306574
  0
LINE
  5
76
330
1F
100
AcDbEntity
  8
20x20
100
AcDbLine
 10
16.00759657017265
 20
-7.533543875580693
 30
18.12405394245141
 11
14.75285798410694
 21
-7.53355895505322
 31
18.12405262299756
  0
LINE
  5
77
330
1F
100
AcDbEntity
  8
20x20
100
AcDbLine
 10
14.42194731307582
 20
-5.947689155616194
 30
0.0
 11
16.00759657017265
 21
-7.533543875580693
 31
18.12405394245141
  0
LINE
  5
78
330
1F
100
AcDbEntity
  8
20x20
100
AcDbLine
 10
-2.053256743485053
 20
-5.947890941518311
 30
0.0
 11
14.42194731307582
 21
-5.947689155616194
 31
0.0
  0
LINE
  5
79
330
1F
100
AcDbEntity
  8
20x20
100
AcDbLine
 10
13.27615340362016
 20
-5.683090016583367
 30
1.277925435836946
 11
-2.162215514002515
 21
-5.683270915031783
 31
1.277925966074323
  0
LINE
  5
7A
330
1F
100
AcDbEntity
  8
20x20
100
AcDbLine
 10
14.75285798410694
 20
-7.159985943268822
 30
18.15673602652793
 11
13.27615340362016
 21
-5.683090016583367
 31
1.277925435836946
  0
LINE
  5
7B
330
1F
100
AcDbEntity
  8
20x20
100
AcDbLine
 10
16.00759657017265
 20
-7.159970863796286
 30
18.15673734598177
 11
14.75285798410694
 21
-7.159985943268822
 31
18.15673602652793
  0
LINE
  5
7C
330
1F
100
AcDbEntity
  8
20x20
100
AcDbLine
 10
14.42194731307582
 20
-5.574116143831787
 30
0.0326834035303716
 11
16.00759657017265
 21
-7.159970863796286
 31
18.15673734598177
  0
LINE
  5
7D
330
1F
100
AcDbEntity
  8
20x20
100
AcDbLine
 10
-2.053256743485053
 20
-5.574317929733895
 30
0.0326834035303716
 11
14.42194731307582
 21
-5.574116143831787
 31
0.0326834035303716
  0
LINE
  5
7E
330
1F
100
AcDbEntity
  8
20x20
100
AcDbLine
 10
13.27615340362016
 20
-6.056663028367764
 30
1.245242032306574
 11
13.27615340362016
 21
-5.683090016583367
 31
1.277925435836946
  0
LINE
  5
7F
330
1F
100
AcDbEntity
  8
20x20
100
AcDbLine
 10
14.75285798410694
 20
-7.53355895505322
 30
18.12405262299756
 11
14.75285798410694
 21
-7.159985943268822
 31
18.15673602652793
  0
LINE
  5
80
330
1F
100
AcDbEntity
  8
20x20
100
AcDbLine
 10
16.00759657017265
 20
-7.533543875580693
 30
18.12405394245141
 11
16.00759657017265
 21
-7.159970863796286
 31
18.15673734598177
  0
LINE
  5
81
330
1F
100
AcDbEntity
  8
20x20
100
AcDbLine
 10
14.42194731307582
 20
-5.947689155616194
 30
0.0
 11
14.42194731307582
 21
-5.574116143831787
 31
0.0326834035303716
  0
LINE
  5
82
330
1F
100
AcDbEntity
  8
20x20
100
AcDbLine
 10
-2.053256743485053
 20
-5.947890941518311
 30
0.0
 11
-2.053256743485053
 21
-5.574317929733895
 31
0.0326834035303716
  0
LINE
  5
83
330
1F
100
AcDbEntity
  8
20x20
100
AcDbLine
 10
13.96003335555251
 20
-6.740631139516865
 30
9.062025691625568
 11
15.21477194162491
 21
-6.740616515599117
 31
9.062026971233397
  0
LINE
  5
84
330
1F
100
AcDbEntity
  8
20x20
100
AcDbLine
 10
6.922690528085064
 20
-5.947777256990772
 30
0.0000003279915957
 11
6.922690528085066
 21
-6.056737206729625
 31
1.245242273975921
  0
LINE
  5
85
330
1F
100
AcDbEntity
  8
20x20
100
AcDbLine
 10
-2.16221551400255
 20
-5.870057420924031
 30
1.261584264309137
 11
13.27615340362013
 21
-5.869876522475606
 31
1.26158373407176
  0
LINE
  5
86
330
1F
100
AcDbEntity
  8
20x20
100
AcDbLine
 10
5.556968944808787
 20
-6.056753477592022
 30
1.245242297425263
 11
5.556968944808787
 21
-5.683180465807615
 31
1.277925700955634
  0
LINE
  5
87
330
1F
100
AcDbEntity
  8
20x20
100
AcDbLine
 10
13.96003335555251
 20
-6.367058127732458
 30
9.094709095155942
 11
15.21477194162491
 21
-6.367043503814711
 31
9.09471037476377
  0
LINE
  5
88
330
1F
100
AcDbEntity
  8
20x20
100
AcDbLine
 10
6.922690528085064
 20
-5.574204245206365
 30
0.0326837315219682
 11
6.922690528085064
 21
-5.683164194945219
 31
1.277925677506301
  0
LINE
  5
89
330
1F
100
AcDbEntity
  8
20x20
100
AcDbLine
 10
13.27615340362015
 20
-5.869876522475561
 30
1.26158373407176
 11
14.75285798410693
 21
-7.346772449161016
 31
18.14039432476275
  0
LINE
  5
8A
330
1F
100
AcDbEntity
  8
20x20
100
AcDbLine
 10
14.01450569386354
 20
-6.795110991710493
 30
9.684647327652067
 11
14.01450569386354
 21
-6.421537979926086
 31
9.71733073118244
  0
LINE
  5
8B
330
1F
100
AcDbEntity
  8
20x20
100
AcDbLine
 10
14.75285798410691
 20
-7.346772449161052
 30
18.14039432476275
 11
16.00759657017262
 21
-7.346757369688525
 31
18.14039564421659
  0
LINE
  5
8C
330
1F
100
AcDbEntity
  8
20x20
100
AcDbLine
 10
15.38022727713976
 20
-7.533551415316992
 30
18.12405328272448
 11
15.38022727713976
 21
-7.159978403532586
 31
18.15673668625485
  0
LINE
  5
8D
330
1F
100
AcDbEntity
  8
20x20
100
AcDbLine
 10
16.00759657017265
 20
-7.346757369688463
 30
18.14039564421659
 11
14.42194731307582
 21
-5.760902649723964
 31
0.0163417017651858
  0
LINE
  5
8E
330
1F
100
AcDbEntity
  8
20x20
100
AcDbLine
 10
15.21477194162424
 20
-6.740616515598417
 30
9.062026971225704
 11
15.21477194162424
 21
-6.36704350381401
 31
9.094710374756076
  0
LINE
  5
8F
330
1F
100
AcDbEntity
  8
20x20
100
AcDbLine
 10
14.42194731307576
 20
-5.760902649724044
 30
0.0163417017651858
 11
-2.05325674348511
 21
-5.76110443562616
 31
0.0163417017651858
  0
LINE
  5
90
330
1F
100
AcDbEntity
  8
20x20
100
AcDbLine
 10
6.184345284795327
 20
-5.947790048567306
 30
0.0
 11
6.184345284795327
 21
-5.574217036782899
 31
0.0326834035303716
  0
LINE
  5
91
330
1F
100
AcDbEntity
  8
20x20
100
AcDbLine
 10
-2.053256743485088
 20
-5.761104435626135
 30
0.0163417017651858
 11
-2.16221551400255
 21
-5.870057420924014
 31
1.261584264309137
  0
LINE
  5
92
330
1F
100
AcDbEntity
  8
20x20
100
AcDbLine
 10
-2.107736128743817
 20
-6.002367434167278
 30
0.6226212812719739
 11
-2.107736128743817
 21
-5.628794422382871
 31
0.6553046848023455
  0
LINE
  5
93
330
1F
100
AcDbEntity
  8
20x20
100
AcDbLine
 10
14.53089802774246
 20
-5.681647926161161
 30
1.245242562543951
 11
14.42194504244456
 21
-5.57268915564369
 31
0.0
  0
LINE
  5
94
330
1F
100
AcDbEntity
  8
20x20
100
AcDbLine
 10
14.53089802774246
 20
-5.681647926161161
 30
1.245242562543951
 11
14.15732501595805
 21
-5.681647926161161
 31
1.277925966074323
  0
LINE
  5
95
330
1F
100
AcDbEntity
  8
20x20
100
AcDbLine
 10
14.15732501595805
 20
-5.681647926161161
 30
1.277925966074323
 11
14.04837203066015
 21
-5.57268915564369
 31
0.0326834035303716
  0
LINE
  5
96
330
1F
100
AcDbEntity
  8
20x20
100
AcDbLine
 10
14.53071712929402
 20
9.756720991461524
 30
1.245242032306574
 11
14.53089802774246
 21
-5.681647926161161
 31
1.245242562543951
  0
LINE
  5
97
330
1F
100
AcDbEntity
  8
20x20
100
AcDbLine
 10
16.0076130559795
 20
11.23342557194831
 30
18.12405262299756
 11
14.53071712929402
 21
9.756720991461524
 31
1.245242032306574
  0
LINE
  5
98
330
1F
100
AcDbEntity
  8
20x20
100
AcDbLine
 10
16.00759797650694
 20
12.48816415801398
 30
18.12405394245141
 11
16.0076130559795
 21
11.23342557194831
 31
18.12405262299756
  0
LINE
  5
99
330
1F
100
AcDbEntity
  8
20x20
100
AcDbLine
 10
14.42174325654245
 20
10.90251490091718
 30
0.0
 11
16.00759797650694
 21
12.48816415801398
 31
18.12405394245141
  0
LINE
  5
9A
330
1F
100
AcDbEntity
  8
20x20
100
AcDbLine
 10
14.42194504244456
 20
-5.57268915564369
 30
0.0
 11
14.42174325654245
 21
10.90251490091718
 31
0.0
  0
LINE
  5
9B
330
1F
100
AcDbEntity
  8
20x20
100
AcDbLine
 10
14.15714411750962
 20
9.756720991461524
 30
1.277925435836946
 11
14.15732501595805
 21
-5.681647926161161
 31
1.277925966074323
  0
LINE
  5
9C
330
1F
100
AcDbEntity
  8
20x20
100
AcDbLine
 10
15.63404004419509
 20
11.23342557194831
 30
18.15673602652793
 11
14.15714411750962
 21
9.756720991461524
 31
1.277925435836946
  0
LINE
  5
9D
330
1F
100
AcDbEntity
  8
20x20
100
AcDbLine
 10
15.63402496472254
 20
12.48816415801398
 30
18.15673734598177
 11
15.63404004419509
 21
11.23342557194831
 31
18.15673602652793
  0
LINE
  5
9E
330
1F
100
AcDbEntity
  8
20x20
100
AcDbLine
 10
14.04817024475805
 20
10.90251490091718
 30
0.0326834035303716
 11
15.63402496472254
 21
12.48816415801398
 31
18.15673734598177
  0
LINE
  5
9F
330
1F
100
AcDbEntity
  8
20x20
100
AcDbLine
 10
14.04837203066015
 20
-5.57268915564369
 30
0.0326834035303716
 11
14.04817024475805
 21
10.90251490091718
 31
0.0326834035303716
  0
LINE
  5
A0
330
1F
100
AcDbEntity
  8
20x20
100
AcDbLine
 10
14.53071712929402
 20
9.756720991461524
 30
1.245242032306574
 11
14.15714411750962
 21
9.756720991461524
 31
1.277925435836946
  0
LINE
  5
A1
330
1F
100
AcDbEntity
  8
20x20
100
AcDbLine
 10
16.0076130559795
 20
11.23342557194831
 30
18.12405262299756
 11
15.63404004419509
 21
11.23342557194831
 31
18.15673602652793
  0
LINE
  5
A2
330
1F
100
AcDbEntity
  8
20x20
100
AcDbLine
 10
16.00759797650694
 20
12.48816415801398
 30
18.12405394245141
 11
15.63402496472254
 21
12.48816415801398
 31
18.15673734598177
  0
LINE
  5
A3
330
1F
100
AcDbEntity
  8
20x20
100
AcDbLine
 10
14.42174325654245
 20
10.90251490091718
 30
0.0
 11
14.04817024475805
 21
10.90251490091718
 31
0.0326834035303716
  0
LINE
  5
A4
330
1F
100
AcDbEntity
  8
20x20
100
AcDbLine
 10
14.42194504244456
 20
-5.57268915564369
 30
0.0
 11
14.04837203066015
 21
-5.57268915564369
 31
0.0326834035303716
  0
LINE
  5
A5
330
1F
100
AcDbEntity
  8
20x20
100
AcDbLine
 10
15.21468524044313
 20
10.44060094339386
 30
9.062025691625568
 11
15.21467061652539
 21
11.69533952946626
 31
9.062026971233397
  0
LINE
  5
A6
330
1F
100
AcDbEntity
  8
20x20
100
AcDbLine
 10
14.42183135791704
 20
3.403258115926414
 30
0.0000003279915951
 11
14.53079130765589
 21
3.403258115926415
 31
1.24524227397592
  0
LINE
  5
A7
330
1F
100
AcDbEntity
  8
20x20
100
AcDbLine
 10
14.34411152185026
 20
-5.681647926161221
 30
1.261584264309137
 11
14.34393062340183
 21
9.756720991461464
 31
1.26158373407176
  0
LINE
  5
A8
330
1F
100
AcDbEntity
  8
20x20
100
AcDbLine
 10
14.53080757851824
 20
2.037536532650122
 30
1.245242297425263
 11
14.15723456673385
 21
2.037536532650122
 31
1.277925700955634
  0
LINE
  5
A9
330
1F
100
AcDbEntity
  8
20x20
100
AcDbLine
 10
14.84111222865873
 20
10.44060094339386
 30
9.094709095155942
 11
14.84109760474098
 21
11.69533952946626
 31
9.09471037476377
  0
LINE
  5
AA
330
1F
100
AcDbEntity
  8
20x20
100
AcDbLine
 10
14.04825834613263
 20
3.403258115926414
 30
0.0326837315219682
 11
14.15721829587149
 21
3.403258115926415
 31
1.277925677506301
  0
LINE
  5
AB
330
1F
100
AcDbEntity
  8
20x20
100
AcDbLine
 10
14.34393062340185
 20
9.756720991461489
 30
1.26158373407176
 11
15.82082655008732
 21
11.23342557194827
 31
18.14039432476275
  0
LINE
  5
AC
330
1F
100
AcDbEntity
  8
20x20
100
AcDbLine
 10
15.26916509263678
 20
10.49507328170488
 30
9.684647327652067
 11
14.89559208085239
 21
10.49507328170488
 31
9.71733073118244
  0
LINE
  5
AD
330
1F
100
AcDbEntity
  8
20x20
100
AcDbLine
 10
15.8208265500873
 20
11.23342557194832
 30
18.14039432476275
 11
15.82081147061475
 21
12.488164158014
 31
18.14039564421659
  0
LINE
  5
AE
330
1F
100
AcDbEntity
  8
20x20
100
AcDbLine
 10
16.00760551624322
 20
11.86079486498116
 30
18.12405328272448
 11
15.63403250445883
 21
11.86079486498116
 31
18.15673668625485
  0
LINE
  5
AF
330
1F
100
AcDbEntity
  8
20x20
100
AcDbLine
 10
15.82081147061477
 20
12.48816415801398
 30
18.14039564421659
 11
14.23495675065028
 21
10.90251490091718
 31
0.0163417017651858
  0
LINE
  5
B0
330
1F
100
AcDbEntity
  8
20x20
100
AcDbLine
 10
15.21467061652472
 20
11.69533952946558
 30
9.062026971225704
 11
14.84109760474033
 21
11.69533952946558
 31
9.094710374756076
  0
LINE
  5
B1
330
1F
100
AcDbEntity
  8
20x20
100
AcDbLine
 10
14.23495675065024
 20
10.90251490091716
 30
0.0163417017651858
 11
14.23515853655235
 21
-5.572689155643708
 31
0.0163417017651858
  0
LINE
  5
B2
330
1F
100
AcDbEntity
  8
20x20
100
AcDbLine
 10
14.42184414949349
 20
2.66491287263673
 30
0.0
 11
14.0482711377091
 21
2.66491287263673
 31
0.0326834035303716
  0
LINE
  5
B3
330
1F
100
AcDbEntity
  8
20x20
100
AcDbLine
 10
14.23515853655237
 20
-5.572689155643655
 30
0.0163417017651858
 11
14.34411152185026
 21
-5.681647926161125
 31
1.261584264309137
  0
LINE
  5
B4
330
1F
100
AcDbEntity
  8
20x20
100
AcDbLine
 10
14.47642153509351
 20
-5.627168540902392
 30
0.6226212812719739
 11
14.10284852330912
 21
-5.627168540902392
 31
0.6553046848023455
  0
LINE
  5
B5
330
1F
100
AcDbEntity
  8
20x20
100
AcDbLine
 10
14.53089802774246
 20
-5.681647926161161
 30
1.245242562543951
 11
14.42194504244456
 21
-5.57268915564369
 31
0.0
  0
LINE
  5
B6
330
1F
100
AcDbEntity
  8
20x20
100
AcDbLine
 10
14.42194504244456
 20
-5.57268915564369
 30
0.0
 11
14.42174325654245
 21
10.90251490091718
 31
0.0
  0
LINE
  5
B7
330
1F
100
AcDbEntity
  8
20x20
100
AcDbLine
 10
14.42174325654245
 20
10.90251490091718
 30
0.0
 11
16.00759797650694
 21
12.48816415801398
 31
18.12405394245141
  0
LINE
  5
B8
330
1F
100
AcDbEntity
  8
20x20
100
AcDbLine
 10
16.00759797650694
 20
12.48816415801398
 30
18.12405394245141
 11
16.0076130559795
 21
11.23342557194831
 31
18.12405262299756
  0
LINE
  5
B9
330
1F
100
AcDbEntity
  8
20x20
100
AcDbLine
 10
16.0076130559795
 20
11.23342557194831
 30
18.12405262299756
 11
14.53071712929402
 21
9.756720991461524
 31
1.245242032306574
  0
LINE
  5
BA
330
1F
100
AcDbEntity
  8
20x20
100
AcDbLine
 10
14.53071712929402
 20
9.756720991461524
 30
1.245242032306574
 11
14.53089802774246
 21
-5.681647926161161
 31
1.245242562543951
  0
LINE
  5
BB
330
1F
100
AcDbEntity
  8
20x20
100
AcDbLine
 10
14.15570202708743
 20
11.01146561558378
 30
1.245242562543951
 11
14.04674325656993
 21
10.90251263028592
 31
0.0
  0
LINE
  5
BC
330
1F
100
AcDbEntity
  8
20x20
100
AcDbLine
 10
14.15570202708743
 20
11.01146561558378
 30
1.245242562543951
 11
14.15570202708743
 21
10.63789260379938
 31
1.277925966074323
  0
LINE
  5
BD
330
1F
100
AcDbEntity
  8
20x20
100
AcDbLine
 10
14.15570202708743
 20
10.63789260379938
 30
1.277925966074323
 11
14.04674325656993
 21
10.5289396185015
 31
0.0326834035303716
  0
LINE
  5
BE
330
1F
100
AcDbEntity
  8
20x20
100
AcDbLine
 10
-1.282666890535266
 20
11.01128471713539
 30
1.245242032306574
 11
14.15570202708743
 21
11.01146561558378
 31
1.245242562543951
  0
LINE
  5
BF
330
1F
100
AcDbEntity
  8
20x20
100
AcDbLine
 10
-2.759371471022065
 20
12.48818064382082
 30
18.12405262299756
 11
-1.282666890535266
 21
11.01128471713539
 31
1.245242032306574
  0
LINE
  5
C0
330
1F
100
AcDbEntity
  8
20x20
100
AcDbLine
 10
-4.014110057087738
 20
12.48816556434831
 30
18.12405394245141
 11
-2.759371471022065
 21
12.48818064382082
 31
18.12405262299756
  0
LINE
  5
C1
330
1F
100
AcDbEntity
  8
20x20
100
AcDbLine
 10
-2.428460799990924
 20
10.9023108443838
 30
0.0
 11
-4.014110057087738
 21
12.48816556434831
 31
18.12405394245141
  0
LINE
  5
C2
330
1F
100
AcDbEntity
  8
20x20
100
AcDbLine
 10
14.04674325656993
 20
10.90251263028592
 30
0.0
 11
-2.428460799990924
 21
10.9023108443838
 31
0.0
  0
LINE
  5
C3
330
1F
100
AcDbEntity
  8
20x20
100
AcDbLine
 10
-1.282666890535266
 20
10.63771170535098
 30
1.277925435836946
 11
14.15570202708743
 21
10.63789260379938
 31
1.277925966074323
  0
LINE
  5
C4
330
1F
100
AcDbEntity
  8
20x20
100
AcDbLine
 10
-2.759371471022065
 20
12.11460763203642
 30
18.15673602652793
 11
-1.282666890535266
 21
10.63771170535098
 31
1.277925435836946
  0
LINE
  5
C5
330
1F
100
AcDbEntity
  8
20x20
100
AcDbLine
 10
-4.014110057087738
 20
12.1145925525639
 30
18.15673734598177
 11
-2.759371471022065
 21
12.11460763203642
 31
18.15673602652793
  0
LINE
  5
C6
330
1F
100
AcDbEntity
  8
20x20
100
AcDbLine
 10
-2.428460799990924
 20
10.52873783259939
 30
0.0326834035303716
 11
-4.014110057087738
 21
12.1145925525639
 31
18.15673734598177
  0
LINE
  5
C7
330
1F
100
AcDbEntity
  8
20x20
100
AcDbLine
 10
14.04674325656993
 20
10.5289396185015
 30
0.0326834035303716
 11
-2.428460799990924
 21
10.52873783259939
 31
0.0326834035303716
  0
LINE
  5
C8
330
1F
100
AcDbEntity
  8
20x20
100
AcDbLine
 10
-1.282666890535266
 20
11.01128471713539
 30
1.245242032306574
 11
-1.282666890535266
 21
10.63771170535098
 31
1.277925435836946
  0
LINE
  5
C9
330
1F
100
AcDbEntity
  8
20x20
100
AcDbLine
 10
-2.759371471022065
 20
12.48818064382082
 30
18.12405262299756
 11
-2.759371471022065
 21
12.11460763203642
 31
18.15673602652793
  0
LINE
  5
CA
330
1F
100
AcDbEntity
  8
20x20
100
AcDbLine
 10
-4.014110057087738
 20
12.48816556434831
 30
18.12405394245141
 11
-4.014110057087738
 21
12.1145925525639
 31
18.15673734598177
  0
LINE
  5
CB
330
1F
100
AcDbEntity
  8
20x20
100
AcDbLine
 10
-2.428460799990924
 20
10.9023108443838
 30
0.0
 11
-2.428460799990924
 21
10.52873783259939
 31
0.0326834035303716
  0
LINE
  5
CC
330
1F
100
AcDbEntity
  8
20x20
100
AcDbLine
 10
14.04674325656993
 20
10.90251263028592
 30
0.0
 11
14.04674325656993
 21
10.5289396185015
 31
0.0326834035303716
  0
LINE
  5
CD
330
1F
100
AcDbEntity
  8
20x20
100
AcDbLine
 10
-1.966546842467598
 20
11.69525282828446
 30
9.06202569162557
 11
-3.22128542854
 21
11.69523820436671
 31
9.062026971233399
  0
LINE
  5
CE
330
1F
100
AcDbEntity
  8
20x20
100
AcDbLine
 10
5.07079598499985
 20
10.90239894575837
 30
0.0000003279915966
 11
5.07079598499985
 21
11.01135889549722
 31
1.245242273975922
  0
LINE
  5
CF
330
1F
100
AcDbEntity
  8
20x20
100
AcDbLine
 10
14.15570202708743
 20
10.82467910969164
 30
1.261584264309137
 11
-1.282666890535266
 21
10.82449821124325
 31
1.26158373407176
  0
LINE
  5
D0
330
1F
100
AcDbEntity
  8
20x20
100
AcDbLine
 10
6.436517568276081
 20
11.01137516635964
 30
1.245242297425263
 11
6.436517568276081
 21
10.63780215457525
 31
1.277925700955634
  0
LINE
  5
D1
330
1F
100
AcDbEntity
  8
20x20
100
AcDbLine
 10
-1.966546842467598
 20
11.32167981650005
 30
9.094709095155942
 11
-3.22128542854
 21
11.32166519258231
 31
9.09471037476377
  0
LINE
  5
D2
330
1F
100
AcDbEntity
  8
20x20
100
AcDbLine
 10
5.07079598499985
 20
10.52882593397396
 30
0.0326837315219682
 11
5.070795984999849
 21
10.63778588371281
 31
1.277925677506301
  0
LINE
  5
D3
330
1F
100
AcDbEntity
  8
20x20
100
AcDbLine
 10
-1.282666890535266
 20
10.82449821124323
 30
1.26158373407176
 11
-2.759371471022065
 21
12.30139413792866
 31
18.14039432476275
  0
LINE
  5
D4
330
1F
100
AcDbEntity
  8
20x20
100
AcDbLine
 10
-2.021019180778666
 20
11.74973268047814
 30
9.684647327652067
 11
-2.021019180778666
 21
11.37615966869375
 31
9.71733073118244
  0
LINE
  5
D5
330
1F
100
AcDbEntity
  8
20x20
100
AcDbLine
 10
-2.759371471021994
 20
12.30139413792863
 30
18.14039432476275
 11
-4.014110057087667
 21
12.30137905845611
 31
18.14039564421659
  0
LINE
  5
D6
330
1F
100
AcDbEntity
  8
20x20
100
AcDbLine
 10
-3.386740764054831
 20
12.48817310408456
 30
18.12405328272448
 11
-3.386740764054831
 21
12.11460009230018
 31
18.15673668625485
  0
LINE
  5
D7
330
1F
100
AcDbEntity
  8
20x20
100
AcDbLine
 10
-4.014110057087738
 20
12.30137905845604
 30
18.14039564421659
 11
-2.428460799990924
 21
10.71552433849153
 31
0.0163417017651858
  0
LINE
  5
D8
330
1F
100
AcDbEntity
  8
20x20
100
AcDbLine
 10
-3.221285428539332
 20
11.69523820436598
 30
9.062026971225704
 11
-3.221285428539332
 21
11.32166519258159
 31
9.094710374756076
  0
LINE
  5
D9
330
1F
100
AcDbEntity
  8
20x20
100
AcDbLine
 10
-2.428460799990889
 20
10.71552433849166
 30
0.0163417017651858
 11
14.04674325656997
 21
10.71572612439378
 31
0.0163417017651858
  0
LINE
  5
DA
330
1F
100
AcDbEntity
  8
20x20
100
AcDbLine
 10
5.809141228289537
 20
10.90241173733491
 30
0.0
 11
5.809141228289537
 21
10.52883872555052
 31
0.0326834035303716
  0
LINE
  5
DB
330
1F
100
AcDbEntity
  8
20x20
100
AcDbLine
 10
14.04674325657
 20
10.71572612439373
 30
0.0163417017651858
 11
14.1557020270875
 21
10.82467910969159
 31
1.261584264309137
  0
LINE
  5
DC
330
1F
100
AcDbEntity
  8
20x20
100
AcDbLine
 10
14.10122264182876
 20
10.95698912293485
 30
0.6226212812719739
 11
14.10122264182876
 21
10.58341611115046
 31
0.6553046848023455
  0
LINE
  5
DD
330
1F
100
AcDbEntity
  8
20x20
100
AcDbLine
 10
14.15570202708743
 20
11.01146561558378
 30
1.245242562543951
 11
14.04674325656993
 21
10.90251263028592
 31
0.0
  0
LINE
  5
DE
330
1F
100
AcDbEntity
  8
20x20
100
AcDbLine
 10
14.04674325656993
 20
10.90251263028592
 30
0.0
 11
-2.428460799990924
 21
10.9023108443838
 31
0.0
  0
LINE
  5
DF
330
1F
100
AcDbEntity
  8
20x20
100
AcDbLine
 10
-2.428460799990924
 20
10.9023108443838
 30
0.0
 11
-4.014110057087738
 21
12.48816556434831
 31
18.12405394245141
  0
LINE
  5
E0
330
1F
100
AcDbEntity
  8
20x20
100
AcDbLine
 10
-4.014110057087738
 20
12.48816556434831
 30
18.12405394245141
 11
-2.759371471022065
 21
12.48818064382082
 31
18.12405262299756
  0
LINE
  5
E1
330
1F
100
AcDbEntity
  8
20x20
100
AcDbLine
 10
-2.759371471022065
 20
12.48818064382082
 30
18.12405262299756
 11
-1.282666890535266
 21
11.01128471713539
 31
1.245242032306574
  0
LINE
  5
E2
330
1F
100
AcDbEntity
  8
20x20
100
AcDbLine
 10
-1.282666890535266
 20
11.01128471713539
 30
1.245242032306574
 11
14.15570202708743
 21
11.01146561558378
 31
1.245242562543951
  0
LINE
  5
E3
330
1F
100
AcDbEntity
  8
20x20
100
AcDbLine
 10
-2.537411514657526
 20
10.63626961492876
 30
1.245242562543951
 11
-2.428458529359665
 21
10.52731084441129
 31
0.0
  0
LINE
  5
E4
330
1F
100
AcDbEntity
  8
20x20
100
AcDbLine
 10
-2.537411514657526
 20
10.63626961492876
 30
1.245242562543951
 11
-2.163838502873137
 21
10.63626961492876
 31
1.277925966074323
  0
LINE
  5
E5
330
1F
100
AcDbEntity
  8
20x20
100
AcDbLine
 10
-2.163838502873137
 20
10.63626961492876
 30
1.277925966074323
 11
-2.05488551757524
 21
10.52731084441129
 31
0.0326834035303716
  0
LINE
  5
E6
330
1F
100
AcDbEntity
  8
20x20
100
AcDbLine
 10
-2.537230616209145
 20
-4.802099302693922
 30
1.245242032306574
 11
-2.537411514657526
 21
10.63626961492876
 31
1.245242562543951
  0
LINE
  5
E7
330
1F
100
AcDbEntity
  8
20x20
100
AcDbLine
 10
-4.014126542894565
 20
-6.278803883180684
 30
18.12405262299756
 11
-2.537230616209145
 21
-4.802099302693922
 31
1.245242032306574
  0
LINE
  5
E8
330
1F
100
AcDbEntity
  8
20x20
100
AcDbLine
 10
-4.014111463422065
 20
-7.533542469246385
 30
18.12405394245141
 11
-4.014126542894565
 21
-6.278803883180684
 31
18.12405262299756
  0
LINE
  5
E9
330
1F
100
AcDbEntity
  8
20x20
100
AcDbLine
 10
-2.428256743457539
 20
-5.94789321214957
 30
0.0
 11
-4.014111463422065
 21
-7.533542469246385
 31
18.12405394245141
  0
LINE
  5
EA
330
1F
100
AcDbEntity
  8
20x20
100
AcDbLine
 10
-2.428458529359665
 20
10.52731084441129
 30
0.0
 11
-2.428256743457539
 21
-5.94789321214957
 31
0.0
  0
LINE
  5
EB
330
1F
100
AcDbEntity
  8
20x20
100
AcDbLine
 10
-2.16365760442472
 20
-4.802099302693922
 30
1.277925435836946
 11
-2.163838502873137
 21
10.63626961492876
 31
1.277925966074323
  0
LINE
  5
EC
330
1F
100
AcDbEntity
  8
20x20
100
AcDbLine
 10
-3.640553531110176
 20
-6.278803883180684
 30
18.15673602652793
 11
-2.16365760442472
 21
-4.802099302693922
 31
1.277925435836946
  0
LINE
  5
ED
330
1F
100
AcDbEntity
  8
20x20
100
AcDbLine
 10
-3.64053845163764
 20
-7.533542469246385
 30
18.15673734598177
 11
-3.640553531110176
 21
-6.278803883180684
 31
18.15673602652793
  0
LINE
  5
EE
330
1F
100
AcDbEntity
  8
20x20
100
AcDbLine
 10
-2.05468373167315
 20
-5.94789321214957
 30
0.0326834035303716
 11
-3.64053845163764
 21
-7.533542469246385
 31
18.15673734598177
  0
LINE
  5
EF
330
1F
100
AcDbEntity
  8
20x20
100
AcDbLine
 10
-2.05488551757524
 20
10.52731084441129
 30
0.0326834035303716
 11
-2.05468373167315
 21
-5.94789321214957
 31
0.0326834035303716
  0
LINE
  5
F0
330
1F
100
AcDbEntity
  8
20x20
100
AcDbLine
 10
-2.537230616209145
 20
-4.802099302693922
 30
1.245242032306574
 11
-2.16365760442472
 21
-4.802099302693922
 31
1.277925435836946
  0
LINE
  5
F1
330
1F
100
AcDbEntity
  8
20x20
100
AcDbLine
 10
-4.014126542894565
 20
-6.278803883180684
 30
18.12405262299756
 11
-3.640553531110176
 21
-6.278803883180684
 31
18.15673602652793
  0
LINE
  5
F2
330
1F
100
AcDbEntity
  8
20x20
100
AcDbLine
 10
-4.014111463422065
 20
-7.533542469246385
 30
18.12405394245141
 11
-3.64053845163764
 21
-7.533542469246385
 31
18.15673734598177
  0
LINE
  5
F3
330
1F
100
AcDbEntity
  8
20x20
100
AcDbLine
 10
-2.428256743457539
 20
-5.94789321214957
 30
0.0
 11
-2.05468373167315
 21
-5.94789321214957
 31
0.0326834035303716
  0
LINE
  5
F4
330
1F
100
AcDbEntity
  8
20x20
100
AcDbLine
 10
-2.428458529359665
 20
10.52731084441129
 30
0.0
 11
-2.05488551757524
 21
10.52731084441129
 31
0.0326834035303716
  0
LINE
  5
F5
330
1F
100
AcDbEntity
  8
20x20
100
AcDbLine
 10
-3.221198727358201
 20
-5.485979254626272
 30
9.062025691625571
 11
-3.221184103440454
 21
-6.740717840698674
 31
9.062026971233399
  0
LINE
  5
F6
330
1F
100
AcDbEntity
  8
20x20
100
AcDbLine
 10
-2.428344844832109
 20
1.551363572841176
 30
0.0000003279915982
 11
-2.537304794570961
 21
1.551363572841176
 31
1.245242273975923
  0
LINE
  5
F7
330
1F
100
AcDbEntity
  8
20x20
100
AcDbLine
 10
-2.35062500876525
 20
10.63626961492876
 30
1.261584264309137
 11
-2.350444110316869
 21
-4.802099302693922
 31
1.26158373407176
  0
LINE
  5
F8
330
1F
100
AcDbEntity
  8
20x20
100
AcDbLine
 10
-2.537321065433263
 20
2.917085156117416
 30
1.245242297425263
 11
-2.163748053648856
 21
2.917085156117416
 31
1.277925700955634
  0
LINE
  5
F9
330
1F
100
AcDbEntity
  8
20x20
100
AcDbLine
 10
-2.847625715573811
 20
-5.485979254626272
 30
9.09470909515594
 11
-2.847611091656064
 21
-6.740717840698674
 31
9.094710374763768
  0
LINE
  5
FA
330
1F
100
AcDbEntity
  8
20x20
100
AcDbLine
 10
-2.05477183304772
 20
1.551363572841176
 30
0.0326837315219667
 11
-2.163731782786573
 21
1.551363572841176
 31
1.2779256775063
  0
LINE
  5
FB
330
1F
100
AcDbEntity
  8
20x20
100
AcDbLine
 10
-2.350444110316977
 20
-4.802099302693922
 30
1.26158373407176
 11
-3.827340037002397
 21
-6.278803883180684
 31
18.14039432476275
  0
LINE
  5
FC
330
1F
100
AcDbEntity
  8
20x20
100
AcDbLine
 10
-3.27567857955189
 20
-5.540451592937302
 30
9.684647327652067
 11
-2.902105567767483
 21
-5.540451592937302
 31
9.71733073118244
  0
LINE
  5
FD
330
1F
100
AcDbEntity
  8
20x20
100
AcDbLine
 10
-3.827340037002362
 20
-6.278803883180684
 30
18.14039432476275
 11
-3.827324957529862
 21
-7.533542469246385
 31
18.14039564421659
  0
LINE
  5
FE
330
1F
100
AcDbEntity
  8
20x20
100
AcDbLine
 10
-4.014119003158315
 20
-6.906173176213535
 30
18.12405328272448
 11
-3.640545991373909
 21
-6.906173176213535
 31
18.15673668625485
  0
LINE
  5
FF
330
1F
100
AcDbEntity
  8
20x20
100
AcDbLine
 10
-3.827324957529862
 20
-7.53354246924642
 30
18.14039564421659
 11
-2.241470237565335
 21
-5.947893212149606
 31
0.0163417017651858
  0
LINE
  5
100
330
1F
100
AcDbEntity
  8
20x20
100
AcDbLine
 10
-3.221184103439802
 20
-6.740717840698014
 30
9.062026971225704
 11
-2.847611091655395
 21
-6.740717840698014
 31
9.094710374756076
  0
LINE
  5
101
330
1F
100
AcDbEntity
  8
20x20
100
AcDbLine
 10
-2.2414702375653
 20
-5.947893212149588
 30
0.0163417017651858
 11
-2.241672023467426
 21
10.52731084441128
 31
0.0163417017651858
  0
LINE
  5
102
330
1F
100
AcDbEntity
  8
20x20
100
AcDbLine
 10
-2.428357636408565
 20
2.289708816130844
 30
0.0
 11
-2.054784624624158
 21
2.289708816130844
 31
0.0326834035303716
  0
LINE
  5
103
330
1F
100
AcDbEntity
  8
20x20
100
AcDbLine
 10
-2.241672023467461
 20
10.52731084441129
 30
0.0163417017651858
 11
-2.350625008765322
 21
10.63626961492876
 31
1.261584264309137
  0
LINE
  5
104
330
1F
100
AcDbEntity
  8
20x20
100
AcDbLine
 10
-2.482935022008595
 20
10.58179022967002
 30
0.6226212812719739
 11
-2.109362010224189
 21
10.58179022967002
 31
0.6553046848023455
  0
LINE
  5
105
330
1F
100
AcDbEntity
  8
20x20
100
AcDbLine
 10
-2.537411514657526
 20
10.63626961492876
 30
1.245242562543951
 11
-2.428458529359665
 21
10.52731084441129
 31
0.0
  0
LINE
  5
106
330
1F
100
AcDbEntity
  8
20x20
100
AcDbLine
 10
-2.428458529359665
 20
10.52731084441129
 30
0.0
 11
-2.428256743457539
 21
-5.94789321214957
 31
0.0
  0
LINE
  5
107
330
1F
100
AcDbEntity
  8
20x20
100
AcDbLine
 10
-2.428256743457539
 20
-5.94789321214957
 30
0.0
 11
-4.014111463422065
 21
-7.533542469246385
 31
18.12405394245141
  0
LINE
  5
108
330
1F
100
AcDbEntity
  8
20x20
100
AcDbLine
 10
-4.014111463422065
 20
-7.533542469246385
 30
18.12405394245141
 11
-4.014126542894565
 21
-6.278803883180684
 31
18.12405262299756
  0
LINE
  5
109
330
1F
100
AcDbEntity
  8
20x20
100
AcDbLine
 10
-4.014126542894565
 20
-6.278803883180684
 30
18.12405262299756
 11
-2.537230616209145
 21
-4.802099302693922
 31
1.245242032306574
  0
LINE
  5
10A
330
1F
100
AcDbEntity
  8
20x20
100
AcDbLine
 10
-2.537230616209145
 20
-4.802099302693922
 30
1.245242032306574
 11
-2.537411514657526
 21
10.63626961492876
 31
1.245242562543951
  0
POLYLINE
  5
10B
330
1F
100
AcDbEntity
  8
20x20
100
AcDb2dPolyline
 66
     1
 10
0.0
 20
0.0
 30
18.75905394245141
  0
VERTEX
  5
10C
330
10B
100
AcDbEntity
  8
20x20
100
AcDbVertex
100
AcDb2dVertex
 10
-4.014111463422065
 20
-7.533542469246385
 30
18.75905394245141
  0
VERTEX
  5
10D
330
10B
100
AcDbEntity
  8
20x20
100
AcDbVertex
100
AcDb2dVertex
 10
16.00759797650694
 20
-7.533542469246385
 30
18.75905394245141
  0
VERTEX
  5
10E
330
10B
100
AcDbEntity
  8
20x20
100
AcDbVertex
100
AcDb2dVertex
 10
16.00759797650694
 20
12.48816415801401
 30
18.75905394245141
  0
VERTEX
  5
10F
330
10B
100
AcDbEntity
  8
20x20
100
AcDbVertex
100
AcDb2dVertex
 10
-4.014111463422065
 20
12.48816415801401
 30
18.75905394245141
  0
VERTEX
  5
110
330
10B
100
AcDbEntity
  8
20x20
100
AcDbVertex
100
AcDb2dVertex
 10
-4.014111463422065
 20
-7.533542469246385
 30
18.75905394245141
  0
SEQEND
  5
111
330
10B
100
AcDbEntity
  8
20x20
  0
POLYLINE
  5
112
330
1F
100
AcDbEntity
  8
20x20
100
AcDb2dPolyline
 66
     1
 10
0.0
 20
0.0
 30
18.12405394245141
  0
VERTEX
  5
113
330
112
100
AcDbEntity
  8
20x20
100
AcDbVertex
100
AcDb2dVertex
 10
-4.014110057087738
 20
-7.533543875580693
 30
18.12405394245141
  0
VERTEX
  5
114
330
112
100
AcDbEntity
  8
20x20
100
AcDbVertex
100
AcDb2dVertex
 10
16.00759657017265
 20
-7.533543875580693
 30
18.12405394245141
  0
VERTEX
  5
115
330
112
100
AcDbEntity
  8
20x20
100
AcDbVertex
100
AcDb2dVertex
 10
16.00759657017265
 20
12.48816556434831
 30
18.12405394245141
  0
VERTEX
  5
116
330
112
100
AcDbEntity
  8
20x20
100
AcDbVertex
100
AcDb2dVertex
 10
-4.014110057087738
 20
12.48816556434831
 30
18.12405394245141
  0
VERTEX
  5
117
330
112
100
AcDbEntity
  8
20x20
100
AcDbVertex
100
AcDb2dVertex
 10
-4.014110057087738
 20
-7.533543875580693
 30
18.12405394245141
  0
SEQEND
  5
118
330
112
100
AcDbEntity
  8
20x20
  0
POLYLINE
  5
119
330
1F
100
AcDbEntity
  8
20x20
100
AcDb2dPolyline
 66
     1
 10
0.0
 20
0.0
 30
18.12405394245141
  0
VERTEX
  5
11A
330
119
100
AcDbEntity
  8
20x20
100
AcDbVertex
100
AcDb2dVertex
 10
-2.764110057087738
 20
-6.283543875580693
 30
18.12405394245141
  0
VERTEX
  5
11B
330
119
100
AcDbEntity
  8
20x20
100
AcDbVertex
100
AcDb2dVertex
 10
14.75759657017265
 20
-6.283543875580693
 30
18.12405394245141
  0
VERTEX
  5
11C
330
119
100
AcDbEntity
  8
20x20
100
AcDbVertex
100
AcDb2dVertex
 10
14.75759657017265
 20
11.23816556434831
 30
18.12405394245141
  0
VERTEX
  5
11D
330
119
100
AcDbEntity
  8
20x20
100
AcDbVertex
100
AcDb2dVertex
 10
-2.764110057087738
 20
11.23816556434831
 30
18.12405394245141
  0
VERTEX
  5
11E
330
119
100
AcDbEntity
  8
20x20
100
AcDbVertex
100
AcDb2dVertex
 10
-2.764110057087738
 20
-6.283543875580693
 30
18.12405394245141
  0
SEQEND
  5
11F
330
119
100
AcDbEntity
  8
20x20
  0
POLYLINE
  5
120
330
1F
100
AcDbEntity
  8
20x20
100
AcDb2dPolyline
 66
     1
 10
0.0
 20
0.0
 30
18.24905394245141
  0
VERTEX
  5
121
330
120
100
AcDbEntity
  8
20x20
100
AcDbVertex
100
AcDb2dVertex
 10
-2.139110057087738
 20
-5.658543875580693
 30
18.24905394245141
  0
VERTEX
  5
122
330
120
100
AcDbEntity
  8
20x20
100
AcDbVertex
100
AcDb2dVertex
 10
14.13259657017265
 20
-5.658543875580693
 30
18.24905394245141
  0
VERTEX
  5
123
330
120
100
AcDbEntity
  8
20x20
100
AcDbVertex
100
AcDb2dVertex
 10
14.13259657017265
 20
10.61316556434831
 30
18.24905394245141
  0
VERTEX
  5
124
330
120
100
AcDbEntity
  8
20x20
100
AcDbVertex
100
AcDb2dVertex
 10
-2.139110057087738
 20
10.61316556434831
 30
18.24905394245141
  0
VERTEX
  5
125
330
120
100
AcDbEntity
  8
20x20
100
AcDbVertex
100
AcDb2dVertex
 10
-2.139110057087738
 20
-5.658543875580693
 30
18.24905394245141
  0
SEQEND
  5
126
330
120
100
AcDbEntity
  8
20x20
  0
POLYLINE
  5
127
330
1F
100
AcDbEntity
  8
20x20
100
AcDb2dPolyline
 66
     1
 10
0.0
 20
0.0
 30
18.24905394245141
  0
VERTEX
  5
128
330
127
100
AcDbEntity
  8
20x20
100
AcDbVertex
100
AcDb2dVertex
 10
-3.639110057087716
 20
-7.15854387558069
 30
18.24905394245141
  0
VERTEX
  5
129
330
127
100
AcDbEntity
  8
20x20
100
AcDbVertex
100
AcDb2dVertex
 10
15.63259657017265
 20
-7.15854387558069
 30
18.24905394245141
  0
VERTEX
  5
12A
330
127
100
AcDbEntity
  8
20x20
100
AcDbVertex
100
AcDb2dVertex
 10
15.63259657017265
 20
12.1131655643483
 30
18.24905394245141
  0
VERTEX
  5
12B
330
127
100
AcDbEntity
  8
20x20
100
AcDbVertex
100
AcDb2dVertex
 10
-3.639110057087716
 20
12.1131655643483
 30
18.24905394245141
  0
VERTEX
  5
12C
330
127
100
AcDbEntity
  8
20x20
100
AcDbVertex
100
AcDb2dVertex
 10
-3.639110057087716
 20
-7.158543875580707
 30
18.24905394245141
  0
SEQEND
  5
12D
330
127
100
AcDbEntity
  8
20x20
  0
LINE
  5
12E
330
1F
100
AcDbEntity
  8
20x20
100
AcDbLine
 10
-3.639110057087716
 20
-7.15854387558069
 30
18.74905394245141
 11
15.63259657017265
 21
-7.15854387558069
 31
18.74905394245141
  0
LINE
  5
12F
330
1F
100
AcDbEntity
  8
20x20
100
AcDbLine
 10
15.63259657017265
 20
-7.15854387558069
 30
18.74905394245141
 11
15.63259657017265
 21
12.1131655643483
 31
18.74905394245141
  0
LINE
  5
130
330
1F
100
AcDbEntity
  8
20x20
100
AcDbLine
 10
15.63259657017265
 20
12.1131655643483
 30
18.74905394245141
 11
-3.639110057087716
 21
12.1131655643483
 31
18.74905394245141
  0
LINE
  5
131
330
1F
100
AcDbEntity
  8
20x20
100
AcDbLine
 10
-3.639110057087716
 20
12.1131655643483
 30
18.74905394245141
 11
-3.639110057087716
 21
-7.15854387558069
 31
18.74905394245141
  0
LINE
  5
132
330
1F
100
AcDbEntity
  8
20x20
100
AcDbLine
 10
-2.139110057087738
 20
-5.658543875580693
 30
18.24905394245141
 11
-2.139110057087738
 21
10.61316556434831
 31
18.24905394245141
  0
LINE
  5
133
330
1F
100
AcDbEntity
  8
20x20
100
AcDbLine
 10
-2.139110057087738
 20
10.61316556434831
 30
18.24905394245141
 11
-2.139110057087738
 21
10.61316556434831
 31
18.74905394245141
  0
LINE
  5
134
330
1F
100
AcDbEntity
  8
20x20
100
AcDbLine
 10
-2.139110057087738
 20
-5.658543875580693
 30
18.74905394245141
 11
-2.139110057087738
 21
10.61316556434831
 31
18.74905394245141
  0
LINE
  5
135
330
1F
100
AcDbEntity
  8
20x20
100
AcDbLine
 10
-2.139110057087738
 20
-5.658543875580693
 30
18.24905394245141
 11
-2.139110057087738
 21
-5.658543875580693
 31
18.74905394245141
  0
LINE
  5
136
330
1F
100
AcDbEntity
  8
20x20
100
AcDbLine
 10
-2.139110057087738
 20
10.61316556434831
 30
18.24905394245141
 11
14.13259657017265
 21
10.61316556434831
 31
18.24905394245141
  0
LINE
  5
137
330
1F
100
AcDbEntity
  8
20x20
100
AcDbLine
 10
14.13259657017265
 20
10.61316556434831
 30
18.24905394245141
 11
14.13259657017265
 21
10.61316556434831
 31
18.74905394245141
  0
LINE
  5
138
330
1F
100
AcDbEntity
  8
20x20
100
AcDbLine
 10
-2.139110057087738
 20
10.61316556434831
 30
18.74905394245141
 11
14.13259657017265
 21
10.61316556434831
 31
18.74905394245141
  0
LINE
  5
139
330
1F
100
AcDbEntity
  8
20x20
100
AcDbLine
 10
14.13259657017265
 20
10.61316556434831
 30
18.24905394245141
 11
14.13259657017265
 21
-5.658543875580693
 31
18.24905394245141
  0
LINE
  5
13A
330
1F
100
AcDbEntity
  8
20x20
100
AcDbLine
 10
14.13259657017265
 20
-5.658543875580693
 30
18.24905394245141
 11
14.13259657017265
 21
-5.658543875580693
 31
18.74905394245141
  0
LINE
  5
13B
330
1F
100
AcDbEntity
  8
20x20
100
AcDbLine
 10
14.13259657017265
 20
10.61316556434831
 30
18.74905394245141
 11
14.13259657017265
 21
-5.658543875580693
 31
18.74905394245141
  0
LINE
  5
13C
330
1F
100
AcDbEntity
  8
20x20
100
AcDbLine
 10
14.13259657017265
 20
-5.658543875580693
 30
18.24905394245141
 11
-2.139110057087738
 21
-5.658543875580693
 31
18.24905394245141
  0
LINE
  5
13D
330
1F
100
AcDbEntity
  8
20x20
100
AcDbLine
 10
14.13259657017265
 20
-5.658543875580693
 30
18.74905394245141
 11
-2.139110057087738
 21
-5.658543875580693
 31
18.74905394245141
  0
LINE
  5
13E
330
1F
100
AcDbEntity
  8
20x20
100
AcDbLine
 10
-2.764110057087738
 20
-6.283543875580693
 30
18.4990539424514
 11
-2.764110057087738
 21
11.23816556434831
 31
18.4990539424514
  0
LINE
  5
13F
330
1F
100
AcDbEntity
  8
20x20
100
AcDbLine
 10
-2.764110057087738
 20
11.23816556434831
 30
18.4990539424514
 11
14.75759657017265
 21
11.23816556434831
 31
18.4990539424514
  0
LINE
  5
140
330
1F
100
AcDbEntity
  8
20x20
100
AcDbLine
 10
14.75759657017265
 20
11.23816556434831
 30
18.4990539424514
 11
14.75759657017265
 21
-6.283543875580693
 31
18.4990539424514
  0
LINE
  5
141
330
1F
100
AcDbEntity
  8
20x20
100
AcDbLine
 10
14.75759657017265
 20
-6.283543875580693
 30
18.4990539424514
 11
-2.764110057087738
 21
-6.283543875580693
 31
18.4990539424514
  0
LINE
  5
142
330
1F
100
AcDbEntity
  8
20x20
100
AcDbLine
 10
-3.639110057087716
 20
-7.15854387558069
 30
18.4990539424514
 11
15.63259657017265
 21
-7.15854387558069
 31
18.4990539424514
  0
LINE
  5
143
330
1F
100
AcDbEntity
  8
20x20
100
AcDbLine
 10
15.63259657017265
 20
-7.15854387558069
 30
18.4990539424514
 11
15.63259657017265
 21
12.1131655643483
 31
18.4990539424514
  0
LINE
  5
144
330
1F
100
AcDbEntity
  8
20x20
100
AcDbLine
 10
15.63259657017265
 20
12.1131655643483
 30
18.4990539424514
 11
-3.639110057087716
 21
12.1131655643483
 31
18.4990539424514
  0
LINE
  5
145
330
1F
100
AcDbEntity
  8
20x20
100
AcDbLine
 10
-3.639110057087716
 20
12.1131655643483
 30
18.4990539424514
 11
-3.639110057087716
 21
-7.15854387558069
 31
18.4990539424514
  0
LINE
  5
146
330
1F
100
AcDbEntity
  8
20x20
100
AcDbLine
 10
-2.764110057087738
 20
11.23816556434831
 30
18.24905394245141
 11
-2.764110057087738
 21
-6.283543875580693
 31
18.24905394245141
  0
LINE
  5
147
330
1F
100
AcDbEntity
  8
20x20
100
AcDbLine
 10
14.75759657017265
 20
11.23816556434831
 30
18.24905394245141
 11
-2.764110057087738
 21
11.23816556434831
 31
18.24905394245141
  0
LINE
  5
148
330
1F
100
AcDbEntity
  8
20x20
100
AcDbLine
 10
14.75759657017265
 20
-6.283543875580693
 30
18.24905394245141
 11
14.75759657017265
 21
11.23816556434831
 31
18.24905394245141
  0
LINE
  5
149
330
1F
100
AcDbEntity
  8
20x20
100
AcDbLine
 10
-2.764110057087738
 20
-6.283543875580693
 30
18.24905394245141
 11
14.75759657017265
 21
-6.283543875580693
 31
18.24905394245141
  0
LINE
  5
14A
330
1F
100
AcDbEntity
  8
20x20
100
AcDbLine
 10
15.63259657017265
 20
-7.15854387558069
 30
18.4990539424514
 11
15.63259657017265
 21
-7.15854387558069
 31
18.74905394245141
  0
LINE
  5
14B
330
1F
100
AcDbEntity
  8
20x20
100
AcDbLine
 10
-3.639110057087716
 20
-7.15854387558069
 30
18.4990539424514
 11
-3.639110057087716
 21
-7.15854387558069
 31
18.74905394245141
  0
LINE
  5
14C
330
1F
100
AcDbEntity
  8
20x20
100
AcDbLine
 10
15.63259657017265
 20
12.1131655643483
 30
18.4990539424514
 11
15.63259657017265
 21
12.1131655643483
 31
18.74905394245141
  0
LINE
  5
14D
330
1F
100
AcDbEntity
  8
20x20
100
AcDbLine
 10
-3.639110057087716
 20
12.1131655643483
 30
18.4990539424514
 11
-3.639110057087716
 21
12.1131655643483
 31
18.74905394245141
  0
LINE
  5
14E
330
1F
100
AcDbEntity
  8
20x20
100
AcDbLine
 10
-2.764110057087738
 20
11.23816556434831
 30
18.24905394245141
 11
-2.764110057087738
 21
11.23816556434831
 31
18.4990539424514
  0
LINE
  5
14F
330
1F
100
AcDbEntity
  8
20x20
100
AcDbLine
 10
-2.764110057087738
 20
-6.283543875580693
 30
18.24905394245141
 11
-2.764110057087738
 21
-6.283543875580693
 31
18.4990539424514
  0
LINE
  5
150
330
1F
100
AcDbEntity
  8
20x20
100
AcDbLine
 10
14.75759657017265
 20
11.23816556434831
 30
18.24905394245141
 11
14.75759657017265
 21
11.23816556434831
 31
18.4990539424514
  0
LINE
  5
151
330
1F
100
AcDbEntity
  8
20x20
100
AcDbLine
 10
14.75759657017265
 20
-6.283543875580693
 30
18.24905394245141
 11
14.75759657017265
 21
-6.283543875580693
 31
18.4990539424514
  0
LINE
  5
152
330
1F
100
AcDbEntity
  8
20x20
100
AcDbLine
 10
5.996743256542466
 20
-7.15854387558069
 30
18.49905394245141
 11
5.996743256542466
 21
-7.15854387558069
 31
18.74905394245141
  0
LINE
  5
153
330
1F
100
AcDbEntity
  8
20x20
100
AcDbLine
 10
15.63259657017265
 20
2.477310844383806
 30
18.49905394245141
 11
15.63259657017265
 21
2.477310844383806
 31
18.74905394245141
  0
LINE
  5
154
330
1F
100
AcDbEntity
  8
20x20
100
AcDbLine
 10
5.996743256542462
 20
12.1131655643483
 30
18.49905394245141
 11
5.996743256542462
 21
12.1131655643483
 31
18.74905394245141
  0
LINE
  5
155
330
1F
100
AcDbEntity
  8
20x20
100
AcDbLine
 10
-3.639110057087716
 20
2.477310844383799
 30
18.49905394245141
 11
-3.639110057087716
 21
2.477310844383799
 31
18.74905394245141
  0
LINE
  5
156
330
1F
100
AcDbEntity
  8
20x20
100
AcDbLine
 10
-2.139110057087738
 20
-5.658543875580693
 30
18.49905394245141
 11
-2.139110057087738
 21
10.61316556434831
 31
18.49905394245141
  0
LINE
  5
157
330
1F
100
AcDbEntity
  8
20x20
100
AcDbLine
 10
-2.139110057087738
 20
2.477310844383806
 30
18.24905394245141
 11
-2.139110057087738
 21
2.477310844383806
 31
18.74905394245141
  0
LINE
  5
158
330
1F
100
AcDbEntity
  8
20x20
100
AcDbLine
 10
-2.139110057087738
 20
10.61316556434831
 30
18.49905394245141
 11
14.13259657017265
 21
10.61316556434831
 31
18.49905394245141
  0
LINE
  5
159
330
1F
100
AcDbEntity
  8
20x20
100
AcDbLine
 10
5.996743256542457
 20
10.61316556434831
 30
18.24905394245141
 11
5.996743256542457
 21
10.61316556434831
 31
18.74905394245141
  0
LINE
  5
15A
330
1F
100
AcDbEntity
  8
20x20
100
AcDbLine
 10
14.13259657017265
 20
10.61316556434831
 30
18.49905394245141
 11
14.13259657017265
 21
-5.658543875580693
 31
18.49905394245141
  0
LINE
  5
15B
330
1F
100
AcDbEntity
  8
20x20
100
AcDbLine
 10
14.13259657017265
 20
2.477310844383806
 30
18.24905394245141
 11
14.13259657017265
 21
2.477310844383806
 31
18.74905394245141
  0
LINE
  5
15C
330
1F
100
AcDbEntity
  8
20x20
100
AcDbLine
 10
14.13259657017265
 20
-5.658543875580693
 30
18.49905394245141
 11
-2.139110057087738
 21
-5.658543875580693
 31
18.49905394245141
  0
LINE
  5
15D
330
1F
100
AcDbEntity
  8
20x20
100
AcDbLine
 10
5.996743256542443
 20
-5.658543875580693
 30
18.24905394245141
 11
5.996743256542443
 21
-5.658543875580693
 31
18.74905394245141
  0
LINE
  5
15E
330
1F
100
AcDbEntity
  8
20x20
100
AcDbLine
 10
-3.639110057087716
 20
2.477310844383806
 30
18.74905394245141
 11
-2.139110057087718
 21
2.477310844383806
 31
18.74905394245141
  0
LINE
  5
15F
330
1F
100
AcDbEntity
  8
20x20
100
AcDbLine
 10
14.13259657017265
 20
2.477310844383806
 30
18.74905394245141
 11
15.63259657017265
 21
2.477310844383806
 31
18.74905394245141
  0
LINE
  5
160
330
1F
100
AcDbEntity
  8
20x20
100
AcDbLine
 10
5.996743256542466
 20
-7.15854387558069
 30
18.74905394245141
 11
5.996743256542466
 21
-5.65854387558069
 31
18.74905394245141
  0
LINE
  5
161
330
1F
100
AcDbEntity
  8
20x20
100
AcDbLine
 10
5.996743256542466
 20
10.6131655643483
 30
18.74905394245141
 11
5.996743256542466
 21
12.11316556434829
 31
18.74905394245141
  0
LINE
  5
162
330
1F
100
AcDbEntity
  8
20x20
100
AcDbLine
 10
-2.764110057087717
 20
2.477310844383806
 30
18.24905394245141
 11
-2.139110057087718
 21
2.477310844383806
 31
18.24905394245141
  0
LINE
  5
163
330
1F
100
AcDbEntity
  8
20x20
100
AcDbLine
 10
14.13259657017265
 20
2.477310844383806
 30
18.24905394245141
 11
14.75759657017265
 21
2.477310844383806
 31
18.24905394245141
  0
LINE
  5
164
330
1F
100
AcDbEntity
  8
20x20
100
AcDbLine
 10
5.996743256542466
 20
-6.28354387558069
 30
18.24905394245141
 11
5.996743256542466
 21
-5.65854387558069
 31
18.24905394245141
  0
LINE
  5
165
330
1F
100
AcDbEntity
  8
20x20
100
AcDbLine
 10
5.996743256542466
 20
10.6131655643483
 30
18.24905394245141
 11
5.996743256542466
 21
11.2381655643483
 31
18.24905394245141
  0
LINE
  5
166
330
1F
100
AcDbEntity
  8
20x20
100
AcDbLine
 10
-2.764110057087738
 20
-6.283543875580693
 30
18.3115539424514
 11
-2.764110057087738
 21
11.23816556434831
 31
18.3115539424514
  0
LINE
  5
167
330
1F
100
AcDbEntity
  8
20x20
100
AcDbLine
 10
-2.764110057087738
 20
2.477310844383806
 30
18.24905394245141
 11
-2.764110057087738
 21
2.477310844383806
 31
18.4990539424514
  0
LINE
  5
168
330
1F
100
AcDbEntity
  8
20x20
100
AcDbLine
 10
-2.764110057087738
 20
11.23816556434831
 30
18.3115539424514
 11
14.75759657017265
 21
11.23816556434831
 31
18.3115539424514
  0
LINE
  5
169
330
1F
100
AcDbEntity
  8
20x20
100
AcDbLine
 10
5.996743256542456
 20
11.23816556434831
 30
18.24905394245141
 11
5.996743256542456
 21
11.23816556434831
 31
18.4990539424514
  0
LINE
  5
16A
330
1F
100
AcDbEntity
  8
20x20
100
AcDbLine
 10
14.75759657017265
 20
11.23816556434831
 30
18.3115539424514
 11
14.75759657017265
 21
-6.283543875580693
 31
18.3115539424514
  0
LINE
  5
16B
330
1F
100
AcDbEntity
  8
20x20
100
AcDbLine
 10
14.75759657017265
 20
2.477310844383806
 30
18.24905394245141
 11
14.75759657017265
 21
2.477310844383806
 31
18.4990539424514
  0
LINE
  5
16C
330
1F
100
AcDbEntity
  8
20x20
100
AcDbLine
 10
14.75759657017265
 20
-6.283543875580693
 30
18.3115539424514
 11
-2.764110057087738
 21
-6.283543875580693
 31
18.3115539424514
  0
LINE
  5
16D
330
1F
100
AcDbEntity
  8
20x20
100
AcDbLine
 10
5.99674325654247
 20
-6.283543875580693
 30
18.24905394245141
 11
5.99674325654247
 21
-6.283543875580693
 31
18.4990539424514
  0
LINE
  5
16E
330
1F
100
AcDbEntity
  8
20x20
100
AcDbLine
 10
-3.639110057087737
 20
2.477310844383806
 30
18.4990539424514
 11
-2.764110057087738
 21
2.477310844383806
 31
18.4990539424514
  0
LINE
  5
16F
330
1F
100
AcDbEntity
  8
20x20
100
AcDbLine
 10
14.75759657017265
 20
2.477310844383806
 30
18.4990539424514
 11
15.63259657017265
 21
2.477310844383806
 31
18.4990539424514
  0
LINE
  5
170
330
1F
100
AcDbEntity
  8
20x20
100
AcDbLine
 10
5.996743256542457
 20
-7.158543875580693
 30
18.4990539424514
 11
5.996743256542457
 21
-6.283543875580693
 31
18.4990539424514
  0
LINE
  5
171
330
1F
100
AcDbEntity
  8
20x20
100
AcDbLine
 10
5.996743256542457
 20
11.2381655643483
 30
18.4990539424514
 11
5.996743256542457
 21
12.11316556434831
 31
18.4990539424514
  0
LINE
  5
172
330
1F
100
AcDbEntity
  8
20x20
100
AcDbLine
 10
-4.014110057087738
 20
-7.533543875580693
 30
18.12405394245141
 11
16.00759657017265
 21
-7.533543875580693
 31
18.12405394245141
  0
LINE
  5
173
330
1F
100
AcDbEntity
  8
20x20
100
AcDbLine
 10
16.00759657017265
 20
-7.533543875580693
 30
18.12405394245141
 11
16.00759657017265
 21
-7.533543875580693
 31
18.4990539424514
  0
LINE
  5
174
330
1F
100
AcDbEntity
  8
20x20
100
AcDbLine
 10
-4.014110057087738
 20
-7.533543875580693
 30
18.4990539424514
 11
16.00759657017265
 21
-7.533543875580693
 31
18.4990539424514
  0
LINE
  5
175
330
1F
100
AcDbEntity
  8
20x20
100
AcDbLine
 10
-4.014110057087738
 20
-7.533543875580693
 30
18.12405394245141
 11
-4.014110057087738
 21
-7.533543875580693
 31
18.4990539424514
  0
LINE
  5
176
330
1F
100
AcDbEntity
  8
20x20
100
AcDbLine
 10
16.00759657017265
 20
-7.533543875580693
 30
18.12405394245141
 11
16.00759657017265
 21
12.4881655643483
 31
18.12405394245141
  0
LINE
  5
177
330
1F
100
AcDbEntity
  8
20x20
100
AcDbLine
 10
16.00759657017265
 20
12.4881655643483
 30
18.12405394245141
 11
16.00759657017265
 21
12.4881655643483
 31
18.4990539424514
  0
LINE
  5
178
330
1F
100
AcDbEntity
  8
20x20
100
AcDbLine
 10
16.00759657017265
 20
-7.533543875580693
 30
18.4990539424514
 11
16.00759657017265
 21
12.4881655643483
 31
18.4990539424514
  0
LINE
  5
179
330
1F
100
AcDbEntity
  8
20x20
100
AcDbLine
 10
16.00759657017265
 20
12.4881655643483
 30
18.12405394245141
 11
-4.014110057087738
 21
12.4881655643483
 31
18.12405394245141
  0
LINE
  5
17A
330
1F
100
AcDbEntity
  8
20x20
100
AcDbLine
 10
-4.014110057087738
 20
12.4881655643483
 30
18.12405394245141
 11
-4.014110057087738
 21
12.4881655643483
 31
18.4990539424514
  0
LINE
  5
17B
330
1F
100
AcDbEntity
  8
20x20
100
AcDbLine
 10
16.00759657017265
 20
12.4881655643483
 30
18.4990539424514
 11
-4.014110057087738
 21
12.4881655643483
 31
18.4990539424514
  0
LINE
  5
17C
330
1F
100
AcDbEntity
  8
20x20
100
AcDbLine
 10
-4.014110057087738
 20
12.4881655643483
 30
18.12405394245141
 11
-4.014110057087738
 21
-7.533543875580693
 31
18.12405394245141
  0
LINE
  5
17D
330
1F
100
AcDbEntity
  8
20x20
100
AcDbLine
 10
-4.014110057087738
 20
12.4881655643483
 30
18.4990539424514
 11
-4.014110057087738
 21
-7.533543875580693
 31
18.4990539424514
  0
LINE
  5
17E
330
1F
100
AcDbEntity
  8
20x20
100
AcDbLine
 10
-2.764110057087737
 20
-6.283543875580693
 30
18.12405394245141
 11
-2.764110057087737
 21
11.2381655643483
 31
18.12405394245141
  0
LINE
  5
17F
330
1F
100
AcDbEntity
  8
20x20
100
AcDbLine
 10
-2.764110057087737
 20
11.2381655643483
 30
18.12405394245141
 11
-2.764110057087737
 21
11.2381655643483
 31
18.4990539424514
  0
LINE
  5
180
330
1F
100
AcDbEntity
  8
20x20
100
AcDbLine
 10
-2.764110057087737
 20
-6.283543875580693
 30
18.4990539424514
 11
-2.764110057087737
 21
11.2381655643483
 31
18.4990539424514
  0
LINE
  5
181
330
1F
100
AcDbEntity
  8
20x20
100
AcDbLine
 10
-2.764110057087737
 20
-6.283543875580693
 30
18.12405394245141
 11
-2.764110057087737
 21
-6.283543875580693
 31
18.4990539424514
  0
LINE
  5
182
330
1F
100
AcDbEntity
  8
20x20
100
AcDbLine
 10
-2.764110057087737
 20
11.2381655643483
 30
18.12405394245141
 11
14.75759657017265
 21
11.2381655643483
 31
18.12405394245141
  0
LINE
  5
183
330
1F
100
AcDbEntity
  8
20x20
100
AcDbLine
 10
14.75759657017265
 20
11.2381655643483
 30
18.12405394245141
 11
14.75759657017265
 21
11.2381655643483
 31
18.4990539424514
  0
LINE
  5
184
330
1F
100
AcDbEntity
  8
20x20
100
AcDbLine
 10
-2.764110057087737
 20
11.2381655643483
 30
18.4990539424514
 11
14.75759657017265
 21
11.2381655643483
 31
18.4990539424514
  0
LINE
  5
185
330
1F
100
AcDbEntity
  8
20x20
100
AcDbLine
 10
14.75759657017265
 20
11.2381655643483
 30
18.12405394245141
 11
14.75759657017265
 21
-6.283543875580693
 31
18.12405394245141
  0
LINE
  5
186
330
1F
100
AcDbEntity
  8
20x20
100
AcDbLine
 10
14.75759657017265
 20
-6.283543875580693
 30
18.12405394245141
 11
14.75759657017265
 21
-6.283543875580693
 31
18.4990539424514
  0
LINE
  5
187
330
1F
100
AcDbEntity
  8
20x20
100
AcDbLine
 10
14.75759657017265
 20
11.2381655643483
 30
18.4990539424514
 11
14.75759657017265
 21
-6.283543875580693
 31
18.4990539424514
  0
LINE
  5
188
330
1F
100
AcDbEntity
  8
20x20
100
AcDbLine
 10
14.75759657017265
 20
-6.283543875580693
 30
18.12405394245141
 11
-2.764110057087737
 21
-6.283543875580693
 31
18.12405394245141
  0
LINE
  5
189
330
1F
100
AcDbEntity
  8
20x20
100
AcDbLine
 10
14.75759657017265
 20
-6.283543875580693
 30
18.4990539424514
 11
-2.764110057087737
 21
-6.283543875580693
 31
18.4990539424514
  0
LINE
  5
18B
330
1F
100
AcDbEntity
  8
20x20$Glass
100
AcDbLine
 10
-4.014111463422065
 20
-7.533542469246385
 30
18.78905394245141
 11
16.00759797650694
 21
-7.533542469246385
 31
18.78905394245141
  0
LINE
  5
18C
330
1F
100
AcDbEntity
  8
20x20$Glass
100
AcDbLine
 10
-4.014111463422065
 20
-7.533542469246385
 30
19.1040539424514
 11
16.00759797650694
 21
-7.533542469246385
 31
19.1040539424514
  0
LINE
  5
18D
330
1F
100
AcDbEntity
  8
20x20$Glass
100
AcDbLine
 10
16.00759797650694
 20
-7.533542469246385
 30
18.78905394245141
 11
16.00759797650694
 21
-7.533542469246385
 31
19.1040539424514
  0
LINE
  5
18E
330
1F
100
AcDbEntity
  8
20x20$Glass
100
AcDbLine
 10
-4.014111463422065
 20
-7.533542469246385
 30
18.78905394245141
 11
-4.014111463422065
 21
-7.533542469246385
 31
19.1040539424514
  0
LINE
  5
18F
330
1F
100
AcDbEntity
  8
20x20$Glass
100
AcDbLine
 10
16.00759797650694
 20
-7.533542469246385
 30
18.78905394245141
 11
16.00759797650694
 21
12.48816415801401
 31
18.78905394245141
  0
LINE
  5
190
330
1F
100
AcDbEntity
  8
20x20$Glass
100
AcDbLine
 10
16.00759797650694
 20
-7.533542469246385
 30
19.1040539424514
 11
16.00759797650694
 21
12.48816415801401
 31
19.1040539424514
  0
LINE
  5
191
330
1F
100
AcDbEntity
  8
20x20$Glass
100
AcDbLine
 10
16.00759797650694
 20
12.48816415801401
 30
18.78905394245141
 11
16.00759797650694
 21
12.48816415801401
 31
19.1040539424514
  0
LINE
  5
192
330
1F
100
AcDbEntity
  8
20x20$Glass
100
AcDbLine
 10
16.00759797650694
 20
12.48816415801401
 30
19.1040539424514
 11
-4.014111463422065
 21
12.48816415801401
 31
19.1040539424514
  0
LINE
  5
193
330
1F
100
AcDbEntity
  8
20x20$Glass
100
AcDbLine
 10
16.00759797650694
 20
12.48816415801401
 30
18.78905394245141
 11
-4.014111463422065
 21
12.48816415801401
 31
18.78905394245141
  0
LINE
  5
194
330
1F
100
AcDbEntity
  8
20x20$Glass
100
AcDbLine
 10
-4.014111463422065
 20
12.48816415801401
 30
18.78905394245141
 11
-4.014111463422065
 21
12.48816415801401
 31
19.1040539424514
  0
LINE
  5
195
330
1F
100
AcDbEntity
  8
20x20$Glass
100
AcDbLine
 10
-4.014111463422065
 20
12.48816415801401
 30
18.78905394245141
 11
-4.014111463422065
 21
-7.533542469246385
 31
18.78905394245141
  0
LINE
  5
196
330
1F
100
AcDbEntity
  8
20x20$Glass
100
AcDbLine
 10
-4.014111463422065
 20
12.48816415801401
 30
19.1040539424514
 11
-4.014111463422065
 21
-7.533542469246385
 31
19.1040539424514
  0
LINE
  5
197
330
1F
100
AcDbEntity
  8
20x20$Glass
100
AcDbLine
 10
-3.98411146342204
 20
12.45816415801401
 30
18.75905394245141
 11
-3.98411146342204
 21
-7.503542469246386
 31
18.75905394245141
  0
LINE
  5
198
330
1F
100
AcDbEntity
  8
20x20$Glass
100
AcDbLine
 10
15.97759797650694
 20
-7.503542469246386
 30
18.75905394245141
 11
15.97759797650694
 21
12.45816415801401
 31
18.75905394245141
  0
LINE
  5
199
330
1F
100
AcDbEntity
  8
20x20$Glass
100
AcDbLine
 10
15.97759797650694
 20
12.45816415801401
 30
18.75905394245141
 11
-3.98411146342204
 21
12.45816415801401
 31
18.75905394245141
  0
LINE
  5
19A
330
1F
100
AcDbEntity
  8
20x20$Glass
100
AcDbLine
 10
-3.98411146342204
 20
-7.503542469246386
 30
18.75905394245141
 11
15.97759797650694
 21
-7.503542469246386
 31
18.75905394245141
  0
LINE
  5
19B
330
1F
100
AcDbEntity
  8
20x20$Glass
100
AcDbLine
 10
15.97759797650694
 20
12.45816415801401
 30
19.13405394245141
 11
-3.98411146342204
 21
12.45816415801401
 31
19.13405394245141
  0
LINE
  5
19C
330
1F
100
AcDbEntity
  8
20x20$Glass
100
AcDbLine
 10
-3.98411146342204
 20
12.45816415801401
 30
19.13405394245141
 11
-3.98411146342204
 21
-7.503542469246386
 31
19.13405394245141
  0
LINE
  5
19D
330
1F
100
AcDbEntity
  8
20x20$Glass
100
AcDbLine
 10
15.97759797650694
 20
-7.503542469246386
 30
19.13405394245141
 11
15.97759797650694
 21
12.45816415801401
 31
19.13405394245141
  0
LINE
  5
19E
330
1F
100
AcDbEntity
  8
20x20$Glass
100
AcDbLine
 10
-3.98411146342204
 20
-7.503542469246386
 30
19.13405394245141
 11
15.97759797650694
 21
-7.503542469246386
 31
19.13405394245141
  0
LINE
  5
19F
330
1F
100
AcDbEntity
  8
20x20$Glass
100
AcDbLine
 10
16.00759797650694
 20
-7.533542469246385
 30
19.1040539424514
 11
15.97759797650694
 21
-7.503542469246386
 31
19.13405394245141
  0
LINE
  5
1A0
330
1F
100
AcDbEntity
  8
20x20$Glass
100
AcDbLine
 10
-3.98411146342204
 20
-7.503542469246386
 30
19.13405394245141
 11
-4.014111463422065
 21
-7.533542469246385
 31
19.1040539424514
  0
LINE
  5
1A1
330
1F
100
AcDbEntity
  8
20x20$Glass
100
AcDbLine
 10
15.97759797650694
 20
-7.503542469246386
 30
18.75905394245141
 11
16.00759797650694
 21
-7.533542469246385
 31
18.78905394245141
  0
LINE
  5
1A2
330
1F
100
AcDbEntity
  8
20x20$Glass
100
AcDbLine
 10
15.97759797650694
 20
12.45816415801401
 30
18.75905394245141
 11
16.00759797650694
 21
12.48816415801401
 31
18.78905394245141
  0
LINE
  5
1A3
330
1F
100
AcDbEntity
  8
20x20$Glass
100
AcDbLine
 10
15.97759797650694
 20
12.45816415801401
 30
19.13405394245141
 11
16.00759797650694
 21
12.48816415801401
 31
19.1040539424514
  0
LINE
  5
1A4
330
1F
100
AcDbEntity
  8
20x20$Glass
100
AcDbLine
 10
-4.014111463422065
 20
12.48816415801401
 30
19.1040539424514
 11
-3.98411146342204
 21
12.45816415801401
 31
19.13405394245141
  0
LINE
  5
1A5
330
1F
100
AcDbEntity
  8
20x20$Glass
100
AcDbLine
 10
-4.014111463422065
 20
-7.533542469246385
 30
18.78905394245141
 11
-3.98411146342204
 21
-7.503542469246386
 31
18.75905394245141
  0
LINE
  5
1A6
330
1F
100
AcDbEntity
  8
20x20$Glass
100
AcDbLine
 10
-3.98411146342204
 20
12.45816415801401
 30
18.75905394245141
 11
-4.014111463422065
 21
12.48816415801401
 31
18.78905394245141
  0
LINE
  5
1A7
330
1F
100
AcDbEntity
  8
20x20$Glass
100
AcDbLine
 10
-4.014111463422065
 20
-7.533542469246385
 30
18.94655394245141
 11
16.00759797650694
 21
-7.533542469246385
 31
18.94655394245141
  0
LINE
  5
1A8
330
1F
100
AcDbEntity
  8
20x20$Glass
100
AcDbLine
 10
5.996743256542439
 20
-7.533542469246385
 30
18.78905394245141
 11
5.996743256542439
 21
-7.533542469246385
 31
19.10405394245141
  0
LINE
  5
1A9
330
1F
100
AcDbEntity
  8
20x20$Glass
100
AcDbLine
 10
16.00759797650694
 20
-7.533542469246385
 30
18.94655394245141
 11
16.00759797650694
 21
12.48816415801401
 31
18.94655394245141
  0
LINE
  5
1AA
330
1F
100
AcDbEntity
  8
20x20$Glass
100
AcDbLine
 10
16.00759797650694
 20
2.477310844383815
 30
18.78905394245141
 11
16.00759797650694
 21
2.477310844383815
 31
19.10405394245141
  0
LINE
  5
1AB
330
1F
100
AcDbEntity
  8
20x20$Glass
100
AcDbLine
 10
16.00759797650694
 20
12.48816415801401
 30
18.94655394245141
 11
-4.014111463422065
 21
12.48816415801401
 31
18.94655394245141
  0
LINE
  5
1AC
330
1F
100
AcDbEntity
  8
20x20$Glass
100
AcDbLine
 10
5.996743256542439
 20
12.48816415801401
 30
18.78905394245141
 11
5.996743256542439
 21
12.48816415801401
 31
19.10405394245141
  0
LINE
  5
1AD
330
1F
100
AcDbEntity
  8
20x20$Glass
100
AcDbLine
 10
-4.014111463422065
 20
12.48816415801401
 30
18.94655394245141
 11
-4.014111463422065
 21
-7.533542469246385
 31
18.94655394245141
  0
LINE
  5
1AE
330
1F
100
AcDbEntity
  8
20x20$Glass
100
AcDbLine
 10
-4.014111463422065
 20
2.477310844383815
 30
18.78905394245141
 11
-4.014111463422065
 21
2.477310844383815
 31
19.10405394245141
  0
LINE
  5
1AF
330
1F
100
AcDbEntity
  8
20x20$Glass
100
AcDbLine
 10
-3.984111463422065
 20
2.477310844383805
 30
18.75905394245141
 11
15.97759797650695
 21
2.477310844383805
 31
18.75905394245141
  0
LINE
  5
1B0
330
1F
100
AcDbEntity
  8
20x20$Glass
100
AcDbLine
 10
5.996743256542439
 20
-7.503542469246384
 30
18.75905394245141
 11
5.996743256542439
 21
12.458164158014
 31
18.75905394245141
  0
LINE
  5
1B1
330
1F
100
AcDbEntity
  8
20x20$Glass
100
AcDbLine
 10
-3.984111463422065
 20
2.477310844383805
 30
19.13405394245141
 11
15.97759797650694
 21
2.477310844383805
 31
19.13405394245141
  0
LINE
  5
1B2
330
1F
100
AcDbEntity
  8
20x20$Glass
100
AcDbLine
 10
5.996743256542439
 20
-7.503542469246384
 30
19.13405394245141
 11
5.996743256542439
 21
12.458164158014
 31
19.13405394245141
  0
LINE
  5
1B3
330
1F
100
AcDbEntity
  8
20x20$Glass
100
AcDbLine
 10
-3.999111463422055
 20
-7.518542469246386
 30
18.77405394245141
 11
15.99259797650695
 21
-7.518542469246386
 31
18.7740539424514
  0
LINE
  5
1B4
330
1F
100
AcDbEntity
  8
20x20$Glass
100
AcDbLine
 10
5.996743256542455
 20
-7.533542469246385
 30
18.7890539424514
 11
5.996743256542455
 21
-7.503542469246386
 31
18.75905394245141
  0
LINE
  5
1B5
330
1F
100
AcDbEntity
  8
20x20$Glass
100
AcDbLine
 10
-3.999111463422055
 20
-7.518542469246386
 30
19.11905394245141
 11
15.99259797650695
 21
-7.518542469246386
 31
19.11905394245141
  0
LINE
  5
1B6
330
1F
100
AcDbEntity
  8
20x20$Glass
100
AcDbLine
 10
5.996743256542457
 20
-7.533542469246385
 30
19.10405394245141
 11
5.996743256542457
 21
-7.503542469246386
 31
19.13405394245141
  0
LINE
  5
1B7
330
1F
100
AcDbEntity
  8
20x20$Glass
100
AcDbLine
 10
15.99259797650694
 20
-7.518542469246376
 30
18.77405394245141
 11
15.99259797650694
 21
12.47316415801402
 31
18.77405394245141
  0
LINE
  5
1B8
330
1F
100
AcDbEntity
  8
20x20$Glass
100
AcDbLine
 10
16.00759797650694
 20
2.477310844383824
 30
18.78905394245141
 11
15.97759797650694
 21
2.477310844383824
 31
18.75905394245141
  0
LINE
  5
1B9
330
1F
100
AcDbEntity
  8
20x20$Glass
100
AcDbLine
 10
15.99259797650694
 20
-7.518542469246382
 30
19.11905394245141
 11
15.99259797650694
 21
12.47316415801403
 31
19.11905394245141
  0
LINE
  5
1BA
330
1F
100
AcDbEntity
  8
20x20$Glass
100
AcDbLine
 10
16.00759797650694
 20
2.477310844383826
 30
19.10405394245141
 11
15.97759797650694
 21
2.477310844383826
 31
19.13405394245141
  0
LINE
  5
1BB
330
1F
100
AcDbEntity
  8
20x20$Glass
100
AcDbLine
 10
15.99259797650695
 20
12.47316415801401
 30
18.7740539424514
 11
-3.999111463422058
 21
12.47316415801401
 31
18.7740539424514
  0
LINE
  5
1BC
330
1F
100
AcDbEntity
  8
20x20$Glass
100
AcDbLine
 10
5.996743256542457
 20
12.48816415801401
 30
18.7890539424514
 11
5.996743256542457
 21
12.45816415801401
 31
18.75905394245141
  0
LINE
  5
1BD
330
1F
100
AcDbEntity
  8
20x20$Glass
100
AcDbLine
 10
15.99259797650695
 20
12.47316415801401
 30
19.11905394245141
 11
-3.999111463422048
 21
12.47316415801401
 31
19.11905394245141
  0
LINE
  5
1BE
330
1F
100
AcDbEntity
  8
20x20$Glass
100
AcDbLine
 10
5.996743256542457
 20
12.48816415801401
 30
19.1040539424514
 11
5.996743256542457
 21
12.45816415801401
 31
19.13405394245141
  0
LINE
  5
1BF
330
1F
100
AcDbEntity
  8
20x20$Glass
100
AcDbLine
 10
-3.999111463422053
 20
12.47316415801402
 30
18.77405394245141
 11
-3.999111463422053
 21
-7.518542469246369
 31
18.77405394245141
  0
LINE
  5
1C0
330
1F
100
AcDbEntity
  8
20x20$Glass
100
AcDbLine
 10
-4.014111463422065
 20
2.477310844383824
 30
18.78905394245141
 11
-3.98411146342204
 21
2.477310844383824
 31
18.75905394245141
  0
LINE
  5
1C1
330
1F
100
AcDbEntity
  8
20x20$Glass
100
AcDbLine
 10
-3.999111463422052
 20
12.47316415801402
 30
19.11905394245141
 11
-3.999111463422052
 21
-7.51854246924638
 31
19.1190539424514
  0
LINE
  5
1C2
330
1F
100
AcDbEntity
  8
20x20$Glass
100
AcDbLine
 10
-4.014111463422065
 20
2.477310844383824
 30
19.10405394245141
 11
-3.98411146342204
 21
2.477310844383824
 31
19.13405394245141
  0
LINE
  5
1C4
330
1F
100
AcDbEntity
  8
Make2D$visible$lines
 60
     1
100
AcDbLine
 10
75.43075107833457
 20
52.38755428215289
 30
0.0
 11
75.46075107833458
 21
52.41755428215291
 31
0.0
  0
LINE
  5
1C5
330
1F
100
AcDbEntity
  8
Make2D$visible$lines
 60
     1
100
AcDbLine
 10
55.43904163840557
 20
52.41755428215291
 30
0.0
 11
55.4690416384056
 21
52.38755428215289
 31
0.0
  0
LINE
  5
1C6
330
1F
100
AcDbEntity
  8
Make2D$visible$lines
 60
     1
100
AcDbLine
 10
55.4690416384056
 20
32.4258476548925
 30
0.0
 11
55.43904163840557
 21
32.39584765489251
 31
0.0
  0
LINE
  5
1C7
330
1F
100
AcDbEntity
  8
Make2D$visible$lines
 60
     1
100
AcDbLine
 10
75.46075107833458
 20
32.39584765489251
 30
0.0
 11
75.43075107833457
 21
32.4258476548925
 31
0.0
  0
LINE
  5
1C8
330
1F
100
AcDbEntity
  8
Make2D$visible$lines
 60
     1
100
AcDbLine
 10
75.43075107833457
 20
32.4258476548925
 30
0.0
 11
75.43075107833457
 21
52.38755428215289
 31
0.0
  0
LINE
  5
1C9
330
1F
100
AcDbEntity
  8
Make2D$visible$lines
 60
     1
100
AcDbLine
 10
55.4690416384056
 20
32.4258476548925
 30
0.0
 11
75.43075107833457
 21
32.4258476548925
 31
0.0
  0
LINE
  5
1CA
330
1F
100
AcDbEntity
  8
Make2D$visible$lines
 60
     1
100
AcDbLine
 10
55.4690416384056
 20
52.38755428215289
 30
0.0
 11
55.4690416384056
 21
32.4258476548925
 31
0.0
  0
LINE
  5
1CB
330
1F
100
AcDbEntity
  8
Make2D$visible$lines
 60
     1
100
AcDbLine
 10
75.43075107833457
 20
52.38755428215289
 30
0.0
 11
55.4690416384056
 21
52.38755428215289
 31
0.0
  0
LINE
  5
1CC
330
1F
100
AcDbEntity
  8
Make2D$visible$lines
 60
     1
100
AcDbLine
 10
55.43904163840557
 20
52.41755428215291
 30
0.0
 11
55.43904163840557
 21
32.39584765489251
 31
0.0
  0
LINE
  5
1CD
330
1F
100
AcDbEntity
  8
Make2D$visible$lines
 60
     1
100
AcDbLine
 10
75.46075107833458
 20
52.41755428215291
 30
0.0
 11
55.43904163840557
 21
52.41755428215291
 31
0.0
  0
LINE
  5
1CE
330
1F
100
AcDbEntity
  8
Make2D$visible$lines
 60
     1
100
AcDbLine
 10
75.46075107833458
 20
32.40584765489251
 30
0.0
 11
75.46075107833458
 21
52.40755303319634
 31
0.0
  0
LINE
  5
1CF
330
1F
100
AcDbEntity
  8
Make2D$visible$lines
 60
     1
100
AcDbLine
 10
55.43904163840557
 20
32.39584765489251
 30
0.0
 11
75.46075107833458
 21
32.39584765489251
 31
0.0
  0
LINE
  5
1D0
330
1F
100
AcDbEntity
  8
Make2D$visible$lines
 60
     1
100
AcDbLine
 10
55.43903032928965
 20
26.03369262600873
 30
0.0
 11
75.46073976921866
 21
26.03369262600873
 31
0.0
  0
LINE
  5
1D1
330
1F
100
AcDbEntity
  8
Make2D$visible$lines
 60
     1
100
AcDbLine
 10
75.46073976921866
 20
26.03369262600873
 30
0.0
 11
75.46073976921866
 21
26.34869262600873
 31
0.0
  0
LINE
  5
1D2
330
1F
100
AcDbEntity
  8
Make2D$visible$lines
 60
     1
100
AcDbLine
 10
55.43903032928965
 20
26.34869262600873
 30
0.0
 11
75.46073976921866
 21
26.34869262600873
 31
0.0
  0
LINE
  5
1D3
330
1F
100
AcDbEntity
  8
Make2D$visible$lines
 60
     1
100
AcDbLine
 10
55.43903032928965
 20
26.03369262600873
 30
0.0
 11
55.43903032928965
 21
26.34869262600873
 31
0.0
  0
LINE
  5
1D4
330
1F
100
AcDbEntity
  8
Make2D$visible$lines
 60
     1
100
AcDbLine
 10
55.46903032928968
 20
26.37869262600873
 30
0.0
 11
75.43073976921865
 21
26.37869262600873
 31
0.0
  0
LINE
  5
1D5
330
1F
100
AcDbEntity
  8
Make2D$visible$lines
 60
     1
100
AcDbLine
 10
75.45323976919383
 20
26.35619262603356
 30
0.0
 11
75.43073976921865
 21
26.37869262600873
 31
0.0
  0
LINE
  5
1D6
330
1F
100
AcDbEntity
  8
Make2D$visible$lines
 60
     1
100
AcDbLine
 10
55.46903032928968
 20
26.37869262600873
 30
0.0
 11
55.44653157855819
 21
26.35619387527725
 31
0.0
  0
LINE
  5
1D7
330
1F
100
AcDbEntity
  8
Make2D$visible$lines
 60
     1
100
AcDbLine
 10
75.44073976921868
 20
26.01369262600873
 30
0.0
 11
75.46073976921866
 21
26.03369262600873
 31
0.0
  0
LINE
  5
1D8
330
1F
100
AcDbEntity
  8
Make2D$visible$lines
 60
     1
100
AcDbLine
 10
55.44653032928968
 20
26.02619262600873
 30
0.0
 11
55.46903032928968
 21
26.00369262600873
 31
0.0
  0
LINE
  5
1D9
330
1F
100
AcDbEntity
  8
Make2D$visible$lines
 60
     1
100
AcDbLine
 10
55.43903173562398
 20
25.36869262600873
 30
0.0
 11
74.21073836288437
 21
25.36869262600873
 31
0.0
  0
LINE
  5
1DA
330
1F
100
AcDbEntity
  8
Make2D$visible$lines
 60
     1
100
AcDbLine
 10
75.46073836288436
 20
25.36869262600873
 30
0.0
 11
75.46073836288436
 21
25.74369262600872
 31
0.0
  0
LINE
  5
1DB
330
1F
100
AcDbEntity
  8
Make2D$visible$lines
 60
     1
100
AcDbLine
 10
55.43903173562398
 20
25.74369262600872
 30
0.0
 11
75.46073836288436
 21
25.74369262600872
 31
0.0
  0
LINE
  5
1DC
330
1F
100
AcDbEntity
  8
Make2D$visible$lines
 60
     1
100
AcDbLine
 10
55.43903173562398
 20
25.36869262600873
 30
0.0
 11
55.43903173562398
 21
25.74369262600872
 31
0.0
  0
LINE
  5
1DD
330
1F
100
AcDbEntity
  8
Make2D$visible$lines
 60
     1
100
AcDbLine
 10
75.08573836288436
 20
25.74369262600872
 30
0.0
 11
75.08573836288436
 21
25.99369262600873
 31
0.0
  0
LINE
  5
1DE
330
1F
100
AcDbEntity
  8
Make2D$visible$lines
 60
     1
100
AcDbLine
 10
55.814031735624
 20
25.74369262600872
 30
0.0
 11
55.814031735624
 21
25.99369262600873
 31
0.0
  0
LINE
  5
1DF
330
1F
100
AcDbEntity
  8
Make2D$visible$lines
 60
     1
100
AcDbLine
 10
57.02488351606931
 20
7.244656205670082
 30
0.0
 11
55.43903033997509
 21
25.36869250388945
 31
0.0
  0
LINE
  5
1E0
330
1F
100
AcDbEntity
  8
Make2D$visible$lines
 60
     1
100
AcDbLine
 10
55.43903172494129
 20
25.36869274811242
 30
0.0
 11
55.8125882615867
 21
25.4013747102549
 31
0.0
  0
LINE
  5
1E1
330
1F
100
AcDbEntity
  8
Make2D$visible$lines
 60
     1
100
AcDbLine
 10
57.02488504925418
 20
7.244638683557321
 30
0.0
 11
57.39845806103857
 21
7.277322087087692
 31
0.0
  0
LINE
  5
1E2
330
1F
100
AcDbEntity
  8
Make2D$visible$lines
 60
     1
100
AcDbLine
 10
57.29234824692941
 20
8.490005676906645
 30
0.0
 11
55.81260334107408
 21
25.40137602953909
 31
0.0
  0
LINE
  5
1E3
330
1F
100
AcDbEntity
  8
Make2D$visible$lines
 60
     1
100
AcDbLine
 10
57.39988504922665
 20
7.244638683557321
 30
0.0
 11
57.02468326335205
 21
7.244638683557321
 31
0.0
  0
LINE
  5
1E4
330
1F
100
AcDbEntity
  8
Make2D$visible$lines
 60
     1
100
AcDbLine
 10
56.69657191897583
 20
25.36935230657292
 30
0.0
 11
58.17047490217645
 21
8.522564119394268
 31
0.0
  0
LINE
  5
1E5
330
1F
100
AcDbEntity
  8
Make2D$visible$lines
 60
     1
100
AcDbLine
 10
57.2909262787092
 20
8.489881246101273
 30
0.0
 11
57.39988504922666
 21
7.244638683557321
 31
0.0
  0
LINE
  5
1E6
330
1F
100
AcDbEntity
  8
Make2D$visible$lines
 60
     1
100
AcDbLine
 10
57.39988504922666
 20
7.244638683557321
 30
0.0
 11
73.87508683515628
 21
7.244638683557321
 31
0.0
  0
LINE
  5
1E7
330
1F
100
AcDbEntity
  8
Make2D$visible$lines
 60
     1
100
AcDbLine
 10
73.98403375974041
 20
8.489881776345017
 30
0.0
 11
75.46073836288437
 21
25.36869262600873
 31
0.0
  0
LINE
  5
1E8
330
1F
100
AcDbEntity
  8
Make2D$visible$lines
 60
     1
100
AcDbLine
 10
75.46073836288437
 20
25.36869262600873
 30
0.0
 11
74.21073836288573
 21
25.36869131153787
 31
0.0
  0
LINE
  5
1E9
330
1F
100
AcDbEntity
  8
Make2D$visible$lines
 60
     1
100
AcDbLine
 10
74.20599977681866
 20
25.36869130655488
 30
0.0
 11
72.72929521803916
 21
8.489880963979212
 31
0.0
  0
LINE
  5
1EA
330
1F
100
AcDbEntity
  8
Make2D$visible$lines
 60
     1
100
AcDbLine
 10
72.72929519633188
 20
8.489880715863896
 30
0.0
 11
57.29162991985189
 21
8.489881246077106
 31
0.0
  0
LINE
  5
1EB
330
1F
100
AcDbEntity
  8
Make2D$visible$lines
 60
     1
100
AcDbLine
 10
72.72929519633188
 20
8.522564119394268
 30
0.0
 11
57.2909262787092
 21
8.522564649631644
 31
0.0
  0
LINE
  5
1EC
330
1F
100
AcDbEntity
  8
Make2D$visible$lines
 60
     1
100
AcDbLine
 10
55.43903032928965
 20
26.00369262600873
 30
0.0
 11
75.46073976921866
 21
26.00369262600873
 31
0.0
  0
LINE
  5
1ED
330
1F
100
AcDbEntity
  8
Make2D$visible$lines
 60
     1
100
AcDbLine
 10
73.87508890863654
 20
7.244636430111248
 30
0.0
 11
73.98403375974041
 21
8.489881776345017
 31
0.0
  0
LINE
  5
1EE
330
1F
100
AcDbEntity
  8
Make2D$visible$lines
 60
     1
100
AcDbLine
 10
99.66550978992527
 20
7.244636430111249
 30
0.0
 11
99.77445464102915
 21
8.489881776345017
 31
0.0
  0
LINE
  5
1EF
330
1F
100
AcDbEntity
  8
Make2D$visible$lines
 60
     1
100
AcDbLine
 10
101.2211592441731
 20
26.00369262600874
 30
0.0
 11
101.2511592441731
 21
26.00369262600874
 31
0.0
  0
LINE
  5
1F0
330
1F
100
AcDbEntity
  8
Make2D$visible$lines
 60
     1
100
AcDbLine
 10
83.0827691289637
 20
8.490005668385784
 30
0.0
 11
81.60302422236279
 21
25.4013760295391
 31
0.0
  0
LINE
  5
1F1
330
1F
100
AcDbEntity
  8
Make2D$visible$lines
 60
     1
100
AcDbLine
 10
82.81530593054289
 20
7.244638683557329
 30
0.0
 11
83.18745701670059
 21
7.277197684714986
 31
0.0
  0
LINE
  5
1F2
330
1F
100
AcDbEntity
  8
Make2D$visible$lines
 60
     1
100
AcDbLine
 10
81.22945121057839
 20
25.36869262600874
 30
0.0
 11
81.60300918307054
 21
25.40137471377152
 31
0.0
  0
LINE
  5
1F3
330
1F
100
AcDbEntity
  8
Make2D$visible$lines
 60
     1
100
AcDbLine
 10
82.8153043801056
 20
7.244656402840732
 30
0.0
 11
81.22945121057839
 21
25.36869262600874
 31
0.0
  0
LINE
  5
1F4
330
1F
100
AcDbEntity
  8
Make2D$visible$lines
 60
     1
100
AcDbLine
 10
98.51971607762061
 20
8.522564119394275
 30
0.0
 11
83.08134715999792
 21
8.522564649631653
 31
0.0
  0
LINE
  5
1F5
330
1F
100
AcDbEntity
  8
Make2D$visible$lines
 60
     1
100
AcDbLine
 10
98.51971607762061
 20
8.489880715863904
 30
0.0
 11
83.08134715999792
 21
8.48988124610128
 31
0.0
  0
LINE
  5
1F6
330
1F
100
AcDbEntity
  8
Make2D$visible$lines
 60
     1
100
AcDbLine
 10
99.9964206581074
 20
25.36869130655489
 30
0.0
 11
98.5197160993279
 21
8.489880963979221
 31
0.0
  0
LINE
  5
1F7
330
1F
100
AcDbEntity
  8
Make2D$visible$lines
 60
     1
100
AcDbLine
 10
101.2511592441731
 20
25.36869262600874
 30
0.0
 11
100.0011606505088
 21
25.36869131153936
 31
0.0
  0
LINE
  5
1F8
330
1F
100
AcDbEntity
  8
Make2D$visible$lines
 60
     1
100
AcDbLine
 10
99.77445464102914
 20
8.489881776345017
 30
0.0
 11
101.2511592441731
 21
25.36869262600874
 31
0.0
  0
LINE
  5
1F9
330
1F
100
AcDbEntity
  8
Make2D$visible$lines
 60
     1
100
AcDbLine
 10
83.1903059305154
 20
7.244638683557329
 30
0.0
 11
99.665507716445
 21
7.244638683557329
 31
0.0
  0
LINE
  5
1FA
330
1F
100
AcDbEntity
  8
Make2D$visible$lines
 60
     1
100
AcDbLine
 10
83.08134715999792
 20
8.48988124610128
 30
0.0
 11
83.1903059305154
 21
7.244638683557329
 31
0.0
  0
LINE
  5
1FB
330
1F
100
AcDbEntity
  8
Make2D$visible$lines
 60
     1
100
AcDbLine
 10
82.48699278958189
 20
25.36935242867663
 30
0.0
 11
83.96089578346516
 21
8.522564119394275
 31
0.0
  0
LINE
  5
1FC
330
1F
100
AcDbEntity
  8
Make2D$visible$lines
 60
     1
100
AcDbLine
 10
83.1903059305154
 20
7.244638683557329
 30
0.0
 11
82.81510187400951
 21
7.244638683557329
 31
0.0
  0
LINE
  5
1FD
330
1F
100
AcDbEntity
  8
Make2D$visible$lines
 60
     1
100
AcDbLine
 10
100.8761606505074
 20
25.74369262600873
 30
0.0
 11
100.8761606505074
 21
25.99369262600874
 31
0.0
  0
LINE
  5
1FE
330
1F
100
AcDbEntity
  8
Make2D$visible$lines
 60
     1
100
AcDbLine
 10
81.60445121057839
 20
25.74369262600873
 30
0.0
 11
81.60445121057839
 21
25.99369262600874
 31
0.0
  0
LINE
  5
1FF
330
1F
100
AcDbEntity
  8
Make2D$visible$lines
 60
     1
100
AcDbLine
 10
81.22945121057839
 20
25.74369262600873
 30
0.0
 11
101.2511606505074
 21
25.74369262600873
 31
0.0
  0
LINE
  5
200
330
1F
100
AcDbEntity
  8
Make2D$visible$lines
 60
     1
100
AcDbLine
 10
101.2511606505074
 20
25.36869262600874
 30
0.0
 11
101.2511606505074
 21
25.74369262600873
 31
0.0
  0
LINE
  5
201
330
1F
100
AcDbEntity
  8
Make2D$visible$lines
 60
     1
100
AcDbLine
 10
81.22945121057839
 20
25.36869262600874
 30
0.0
 11
100.0011606505074
 21
25.36869262600874
 31
0.0
  0
LINE
  5
202
330
1F
100
AcDbEntity
  8
Make2D$visible$lines
 60
     1
100
AcDbLine
 10
81.22945121057839
 20
25.36869262600874
 30
0.0
 11
81.22945121057839
 21
25.74369262600873
 31
0.0
  0
LINE
  5
203
330
1F
100
AcDbEntity
  8
Make2D$visible$lines
 60
     1
100
AcDbLine
 10
101.2211592441731
 20
26.37869262600874
 30
0.0
 11
101.2436579949044
 21
26.35619387527742
 31
0.0
  0
LINE
  5
204
330
1F
100
AcDbEntity
  8
Make2D$visible$lines
 60
     1
100
AcDbLine
 10
101.2211592441731
 20
26.00369262600874
 30
0.0
 11
101.2436592441731
 21
26.02619262600874
 31
0.0
  0
LINE
  5
205
330
1F
100
AcDbEntity
  8
Make2D$visible$lines
 60
     1
100
AcDbLine
 10
81.2594526169127
 20
26.00369262600874
 30
0.0
 11
81.2294526169127
 21
26.03369262600874
 31
0.0
  0
LINE
  5
206
330
1F
100
AcDbEntity
  8
Make2D$visible$lines
 60
     1
100
AcDbLine
 10
81.23695261693753
 20
26.35619262603357
 30
0.0
 11
81.2594526169127
 21
26.37869262600874
 31
0.0
  0
LINE
  5
207
330
1F
100
AcDbEntity
  8
Make2D$visible$lines
 60
     1
100
AcDbLine
 10
81.2594526169127
 20
26.37869262600874
 30
0.0
 11
101.2211592441731
 21
26.37869262600874
 31
0.0
  0
LINE
  5
208
330
1F
100
AcDbEntity
  8
Make2D$visible$lines
 60
     1
100
AcDbLine
 10
81.2594526169127
 20
26.00369262600874
 30
0.0
 11
101.2211592441731
 21
26.00369262600874
 31
0.0
  0
LINE
  5
209
330
1F
100
AcDbEntity
  8
Make2D$visible$lines
 60
     1
100
AcDbLine
 10
81.2294526169127
 20
26.34869262600873
 30
0.0
 11
101.2511592441731
 21
26.34869262600873
 31
0.0
  0
LINE
  5
20A
330
1F
100
AcDbEntity
  8
Make2D$visible$lines
 60
     1
100
AcDbLine
 10
101.2511592441731
 20
26.03369262600874
 30
0.0
 11
101.2511592441731
 21
26.34869262600873
 31
0.0
  0
LINE
  5
20B
330
1F
100
AcDbEntity
  8
Make2D$visible$lines
 60
     1
100
AcDbLine
 10
81.2294526169127
 20
26.03369262600874
 30
0.0
 11
101.2511592441731
 21
26.03369262600874
 31
0.0
  0
LINE
  5
20C
330
1F
100
AcDbEntity
  8
Make2D$visible$lines
 60
     1
100
AcDbLine
 10
81.2294526169127
 20
26.03369262600874
 30
0.0
 11
81.2294526169127
 21
26.34869262600873
 31
0.0
  0
LINE
  5
20D
330
1F
100
AcDbEntity
  8
Make2D$visible$lines
 60
     1
100
AcDbLine
 10
87.75777729637252
 20
46.22929325610103
 30
0.0
 11
101.2373019758315
 21
48.06608324766911
 31
0.0
  0
LINE
  5
20E
330
1F
100
AcDbEntity
  8
Make2D$visible$lines
 60
     1
100
AcDbLine
 10
101.2373019758315
 20
48.06608324766911
 30
0.0
 11
101.2511719596233
 21
48.30107652017652
 31
0.0
  0
LINE
  5
20F
330
1F
100
AcDbEntity
  8
Make2D$visible$lines
 60
     1
100
AcDbLine
 10
87.75615744141571
 20
46.49418121171366
 30
0.0
 11
101.2511719596233
 21
48.30107652017652
 31
0.0
  0
LINE
  5
210
330
1F
100
AcDbEntity
  8
Make2D$visible$lines
 60
     1
100
AcDbLine
 10
87.75777729637252
 20
46.22929325610103
 30
0.0
 11
87.75615744141571
 21
46.49418121171366
 31
0.0
  0
LINE
  5
211
330
1F
100
AcDbEntity
  8
Make2D$visible$lines
 60
     1
100
AcDbLine
 10
81.2374996077036
 20
49.24004192492566
 30
0.0
 11
81.22945121057839
 21
49.45563394017236
 31
0.0
  0
LINE
  5
212
330
1F
100
AcDbEntity
  8
Make2D$visible$lines
 60
     1
100
AcDbLine
 10
81.2374996077036
 20
49.24004192492566
 30
0.0
 11
87.75777729637252
 21
46.22929325610103
 31
0.0
  0
LINE
  5
213
330
1F
100
AcDbEntity
  8
Make2D$visible$lines
 60
     1
100
AcDbLine
 10
81.22945121057839
 20
49.45563394017236
 30
0.0
 11
87.75615744141571
 21
46.49418121171366
 31
0.0
  0
LINE
  5
214
330
1F
100
AcDbEntity
  8
Make2D$visible$lines
 60
     1
100
AcDbLine
 10
81.26560706956556
 20
49.21792499093031
 30
0.0
 11
87.76023229364532
 21
46.21678135161611
 31
0.0
  0
LINE
  5
215
330
1F
100
AcDbEntity
  8
Make2D$visible$lines
 60
     1
100
AcDbLine
 10
92.96137466336025
 20
50.660807431188
 30
0.0
 11
81.2560580831445
 21
49.47461394584786
 31
0.0
  0
LINE
  5
216
330
1F
100
AcDbEntity
  8
Make2D$visible$lines
 60
     1
100
AcDbLine
 10
81.2560580831445
 20
49.47461394584786
 30
0.0
 11
87.76680325431937
 21
46.52803695432279
 31
0.0
  0
LINE
  5
217
330
1F
100
AcDbEntity
  8
Make2D$visible$lines
 60
     1
100
AcDbLine
 10
87.76680325431937
 20
46.52803695432279
 30
0.0
 11
101.2196104561964
 21
48.32537767674256
 31
0.0
  0
LINE
  5
218
330
1F
100
AcDbEntity
  8
Make2D$visible$lines
 60
     1
100
AcDbLine
 10
101.2196104561964
 20
48.32537767674256
 30
0.0
 11
92.96137466336025
 21
50.660807431188
 31
0.0
  0
LINE
  5
219
330
1F
100
AcDbEntity
  8
Make2D$visible$lines
 60
     1
100
AcDbLine
 10
101.2511719596233
 20
48.30107652017652
 30
0.0
 11
101.2196104561964
 21
48.32537767674256
 31
0.0
  0
LINE
  5
21A
330
1F
100
AcDbEntity
  8
Make2D$visible$lines
 60
     1
100
AcDbLine
 10
87.76680325431937
 20
46.52803695432279
 30
0.0
 11
87.75615744141571
 21
46.49418121171366
 31
0.0
  0
LINE
  5
21B
330
1F
100
AcDbEntity
  8
Make2D$visible$lines
 60
     1
100
AcDbLine
 10
101.2031453012372
 20
48.04566144581515
 30
0.0
 11
101.2267920089385
 21
48.05979948427793
 31
0.0
  0
LINE
  5
21C
330
1F
100
AcDbEntity
  8
Make2D$visible$lines
 60
     1
100
AcDbLine
 10
81.22945121057839
 20
49.45563394017236
 30
0.0
 11
81.25310115935198
 21
49.47250462502392
 31
0.0
  0
LINE
  5
21D
330
1F
100
AcDbEntity
  8
Make2D$visible$lines
 60
     1
100
AcDbLine
 10
87.75777729637252
 20
46.22929325610103
 30
0.0
 11
87.76871398751891
 21
46.21286199049192
 31
0.0
  0
LINE
  5
21E
330
1F
100
AcDbEntity
  8
Make2D$visible$lines
 60
     1
100
AcDbLine
 10
87.76118495926931
 20
45.67232126525683
 30
0.0
 11
100.4611723699934
 21
47.46622251992212
 31
0.0
  0
LINE
  5
21F
330
1F
100
AcDbEntity
  8
Make2D$visible$lines
 60
     1
100
AcDbLine
 10
100.8346480702594
 20
47.51897678696402
 30
0.0
 11
101.2081237705253
 21
47.57173105400592
 31
0.0
  0
LINE
  5
220
330
1F
100
AcDbEntity
  8
Make2D$visible$lines
 60
     1
100
AcDbLine
 10
101.2081237705253
 20
47.57173105400592
 30
0.0
 11
101.2245604249613
 21
47.85021034473161
 31
0.0
  0
LINE
  5
221
330
1F
100
AcDbEntity
  8
Make2D$visible$lines
 60
     1
100
AcDbLine
 10
87.7592665500081
 20
45.9860309413725
 30
0.0
 11
101.2245604249613
 21
47.85021034473161
 31
0.0
  0
LINE
  5
222
330
1F
100
AcDbEntity
  8
Make2D$visible$lines
 60
     1
100
AcDbLine
 10
87.76118495926931
 20
45.67232126525683
 30
0.0
 11
87.7592665500081
 21
45.9860309413725
 31
0.0
  0
LINE
  5
223
330
1F
100
AcDbEntity
  8
Make2D$visible$lines
 60
     1
100
AcDbLine
 10
101.2245604249613
 20
47.85021034473161
 30
0.0
 11
100.8205335084476
 21
47.96858972370048
 31
0.0
  0
LINE
  5
224
330
1F
100
AcDbEntity
  8
Make2D$visible$lines
 60
     1
100
AcDbLine
 10
81.25443667330666
 20
48.78636446487737
 30
0.0
 11
81.24489508791608
 21
49.04195445854454
 31
0.0
  0
LINE
  5
225
330
1F
100
AcDbEntity
  8
Make2D$visible$lines
 60
     1
100
AcDbLine
 10
81.58001997145524
 20
49.07713786157613
 30
0.0
 11
81.24489508791608
 21
49.04195445854454
 31
0.0
  0
LINE
  5
226
330
1F
100
AcDbEntity
  8
Make2D$visible$lines
 60
     1
100
AcDbLine
 10
81.25443667330666
 20
48.78636446487737
 30
0.0
 11
87.26092251246332
 21
45.91174021955425
 31
0.0
  0
LINE
  5
227
330
1F
100
AcDbEntity
  8
Make2D$visible$lines
 60
     1
100
AcDbLine
 10
87.51105373586631
 20
45.79203074240553
 30
0.0
 11
87.76118495926931
 21
45.67232126525683
 31
0.0
  0
LINE
  5
228
330
1F
100
AcDbEntity
  8
Make2D$visible$lines
 60
     1
100
AcDbLine
 10
81.24489508791608
 20
49.04195445854454
 30
0.0
 11
87.7592665500081
 21
45.9860309413725
 31
0.0
  0
LINE
  5
229
330
1F
100
AcDbEntity
  8
Make2D$visible$lines
 60
     1
100
AcDbLine
 10
87.89301458206393
 20
46.09625804136615
 30
0.0
 11
100.8151742488349
 21
47.87462934446636
 31
0.0
  0
LINE
  5
22A
330
1F
100
AcDbEntity
  8
Make2D$visible$lines
 60
     1
100
AcDbLine
 10
100.8151742488349
 20
47.87462934446636
 30
0.0
 11
100.8215933026903
 21
47.98717040016469
 31
0.0
  0
LINE
  5
22B
330
1F
100
AcDbEntity
  8
Make2D$visible$lines
 60
     1
100
AcDbLine
 10
87.89301458206393
 20
46.09625804136615
 30
0.0
 11
87.89232560525211
 21
46.22244500777828
 31
0.0
  0
LINE
  5
22C
330
1F
100
AcDbEntity
  8
Make2D$visible$lines
 60
     1
100
AcDbLine
 10
81.58690326491248
 20
49.02155441118546
 30
0.0
 11
81.58491317399395
 21
49.07731250738723
 31
0.0
  0
LINE
  5
22D
330
1F
100
AcDbEntity
  8
Make2D$visible$lines
 60
     1
100
AcDbLine
 10
81.58690326491248
 20
49.02155441118546
 30
0.0
 11
87.89301458206393
 21
46.09625804136615
 31
0.0
  0
LINE
  5
22E
330
1F
100
AcDbEntity
  8
Make2D$visible$lines
 60
     1
100
AcDbLine
 10
83.04348731016728
 20
37.66955958035473
 30
0.0
 11
83.16199924337951
 21
36.89371361829477
 31
0.0
  0
LINE
  5
22F
330
1F
100
AcDbEntity
  8
Make2D$visible$lines
 60
     1
100
AcDbLine
 10
83.16199924337951
 20
36.89371361829477
 30
0.0
 11
88.36014877136807
 21
32.39583529107139
 31
0.0
  0
LINE
  5
230
330
1F
100
AcDbEntity
  8
Make2D$visible$lines
 60
     1
100
AcDbLine
 10
88.36014877136807
 20
32.39583529107139
 30
0.0
 11
87.76118332503549
 21
45.67232119152877
 31
0.0
  0
LINE
  5
231
330
1F
100
AcDbEntity
  8
Make2D$visible$lines
 60
     1
100
AcDbLine
 10
87.51105189971061
 20
45.79202690571522
 30
0.0
 11
87.26091909923736
 21
45.91173308766791
 31
0.0
  0
LINE
  5
232
330
1F
100
AcDbEntity
  8
Make2D$visible$lines
 60
     1
100
AcDbLine
 10
87.26091909923736
 20
45.91173308766791
 30
0.0
 11
87.85825660873482
 21
33.61806446905137
 31
0.0
  0
LINE
  5
233
330
1F
100
AcDbEntity
  8
Make2D$visible$lines
 60
     1
100
AcDbLine
 10
87.85825660873482
 20
33.61806446905137
 30
0.0
 11
83.04348731016728
 21
37.66955958035473
 31
0.0
  0
LINE
  5
234
330
1F
100
AcDbEntity
  8
Make2D$visible$lines
 60
     1
100
AcDbLine
 10
87.8430950426623
 20
33.93010144296296
 30
0.0
 11
83.27076826369728
 21
37.73621316585074
 31
0.0
  0
LINE
  5
235
330
1F
100
AcDbEntity
  8
Make2D$visible$lines
 60
     1
100
AcDbLine
 10
87.7611848446939
 20
45.67232174847441
 30
0.0
 11
88.04553805219474
 21
45.73974455108659
 31
0.0
  0
LINE
  5
236
330
1F
100
AcDbEntity
  8
Make2D$visible$lines
 60
     1
100
AcDbLine
 10
88.36014877136807
 20
32.39583529107139
 30
0.0
 11
88.61641058715848
 21
32.48591899170042
 31
0.0
  0
LINE
  5
237
330
1F
100
AcDbEntity
  8
Make2D$visible$lines
 60
     1
100
AcDbLine
 10
88.58164512137739
 20
33.29306137591509
 30
0.0
 11
88.04553805219474
 21
45.73974455108659
 31
0.0
  0
LINE
  5
238
330
1F
100
AcDbEntity
  8
Make2D$visible$lines
 60
     1
100
AcDbLine
 10
83.04348731016728
 20
37.66955958035473
 30
0.0
 11
83.27076826369728
 21
37.73621316585074
 31
0.0
  0
LINE
  5
239
330
1F
100
AcDbEntity
  8
Make2D$visible$lines
 60
     1
100
AcDbLine
 10
83.06234384644107
 20
36.97994540635157
 30
0.0
 11
81.25443667330666
 21
48.78636446487737
 31
0.0
  0
LINE
  5
23A
330
1F
100
AcDbEntity
  8
Make2D$visible$lines
 60
     1
100
AcDbLine
 10
83.79240720922039
 20
37.9258889824144
 30
0.0
 11
87.61121335909652
 21
38.70240589618622
 31
0.0
  0
LINE
  5
23B
330
1F
100
AcDbEntity
  8
Make2D$visible$lines
 60
     1
100
AcDbLine
 10
88.34224964386067
 20
38.8510549811152
 30
0.0
 11
92.30215905503847
 21
39.65626386423264
 31
0.0
  0
LINE
  5
23C
330
1F
100
AcDbEntity
  8
Make2D$visible$lines
 60
     1
100
AcDbLine
 10
83.80440565257769
 20
37.84550258280559
 30
0.0
 11
87.61506721404253
 21
38.62309057635952
 31
0.0
  0
LINE
  5
23D
330
1F
100
AcDbEntity
  8
Make2D$visible$lines
 60
     1
100
AcDbLine
 10
88.34564740965311
 20
38.77216977934617
 30
0.0
 11
92.42398827405566
 21
39.60437931530945
 31
0.0
  0
LINE
  5
23E
330
1F
100
AcDbEntity
  8
Make2D$visible$lines
 60
     1
100
AcDbLine
 10
82.2419160542488
 20
48.31376996516019
 30
0.0
 11
83.80440565257769
 21
37.84550258280559
 31
0.0
  0
LINE
  5
23F
330
1F
100
AcDbEntity
  8
Make2D$visible$lines
 60
     1
100
AcDbLine
 10
81.25443667330666
 20
48.78636446487737
 30
0.0
 11
81.35143400443707
 21
48.76187716729066
 31
0.0
  0
LINE
  5
240
330
1F
100
AcDbEntity
  8
Make2D$visible$lines
 60
     1
100
AcDbLine
 10
83.06234384644107
 20
36.97994540635157
 30
0.0
 11
83.16037476321426
 21
36.91447606699876
 31
0.0
  0
LINE
  5
241
330
1F
100
AcDbEntity
  8
Make2D$visible$lines
 60
     1
100
AcDbLine
 10
83.0455772491669
 20
37.66987878848271
 30
0.0
 11
81.35143400443707
 21
48.76187716729066
 31
0.0
  0
LINE
  5
242
330
1F
100
AcDbEntity
  8
Make2D$visible$lines
 60
     1
100
AcDbLine
 10
92.39107030950046
 20
38.86095758611137
 30
0.0
 11
88.37828059592488
 21
38.01453207249728
 31
0.0
  0
LINE
  5
243
330
1F
100
AcDbEntity
  8
Make2D$visible$lines
 60
     1
100
AcDbLine
 10
87.65207930740678
 20
37.86135302687183
 30
0.0
 11
84.03658462084877
 21
37.0987297235161
 31
0.0
  0
LINE
  5
244
330
1F
100
AcDbEntity
  8
Make2D$visible$lines
 60
     1
100
AcDbLine
 10
92.30215905503847
 20
39.65626386423264
 30
0.0
 11
92.42398827405566
 21
39.60437931530945
 31
0.0
  0
LINE
  5
245
330
1F
100
AcDbEntity
  8
Make2D$visible$lines
 60
     1
100
AcDbLine
 10
92.42398827405566
 20
39.60437931530945
 30
0.0
 11
92.39107030950046
 21
38.86095758611137
 31
0.0
  0
LINE
  5
246
330
1F
100
AcDbEntity
  8
Make2D$visible$lines
 60
     1
100
AcDbLine
 10
93.22694071719008
 20
46.44437133071976
 30
0.0
 11
92.90779373490093
 21
39.45744343785274
 31
0.0
  0
LINE
  5
247
330
1F
100
AcDbEntity
  8
Make2D$visible$lines
 60
     1
100
AcDbLine
 10
92.90779373490093
 20
39.45744343785274
 30
0.0
 11
98.22154236350237
 21
36.3916845857062
 31
0.0
  0
LINE
  5
248
330
1F
100
AcDbEntity
  8
Make2D$visible$lines
 60
     1
100
AcDbLine
 10
92.90779373490093
 20
39.45744343785274
 30
0.0
 11
92.71451668337714
 21
39.43632399395496
 31
0.0
  0
LINE
  5
249
330
1F
100
AcDbEntity
  8
Make2D$visible$lines
 60
     1
100
AcDbLine
 10
92.71451668337714
 20
39.43632399395496
 30
0.0
 11
98.19625496187808
 21
36.25448318120432
 31
0.0
  0
LINE
  5
24A
330
1F
100
AcDbEntity
  8
Make2D$visible$lines
 60
     1
100
AcDbLine
 10
93.02953522445577
 20
46.41648736913452
 30
0.0
 11
92.71451668337714
 21
39.43632399395496
 31
0.0
  0
LINE
  5
24B
330
1F
100
AcDbEntity
  8
Make2D$visible$lines
 60
     1
100
AcDbLine
 10
92.30237918288525
 20
39.65625419392965
 30
0.0
 11
92.59667286255873
 21
46.35534460505203
 31
0.0
  0
LINE
  5
24C
330
1F
100
AcDbEntity
  8
Make2D$visible$lines
 60
     1
100
AcDbLine
 10
97.58663184062404
 20
35.74052515722912
 30
0.0
 11
92.39133486213001
 21
38.86139798517685
 31
0.0
  0
LINE
  5
24D
330
1F
100
AcDbEntity
  8
Make2D$visible$lines
 60
     1
100
AcDbLine
 10
88.58168911200926
 20
33.29306327069207
 30
0.0
 11
88.6174343232171
 21
32.46309817344348
 31
0.0
  0
LINE
  5
24E
330
1F
100
AcDbEntity
  8
Make2D$visible$lines
 60
     1
100
AcDbLine
 10
88.6174343232171
 20
32.46309817344348
 30
0.0
 11
98.85400778395982
 21
35.13931310239246
 31
0.0
  0
LINE
  5
24F
330
1F
100
AcDbEntity
  8
Make2D$visible$lines
 60
     1
100
AcDbLine
 10
98.85400778395982
 20
35.13931310239246
 30
0.0
 11
101.2081237705254
 21
47.57173105400592
 31
0.0
  0
LINE
  5
250
330
1F
100
AcDbEntity
  8
Make2D$visible$lines
 60
     1
100
AcDbLine
 10
100.8346483702117
 20
47.51897466348446
 30
0.0
 11
100.461172969886
 21
47.4662182729613
 31
0.0
  0
LINE
  5
251
330
1F
100
AcDbEntity
  8
Make2D$visible$lines
 60
     1
100
AcDbLine
 10
100.461172969886
 20
47.4662182729613
 30
0.0
 11
98.29055520480446
 21
35.75787004574674
 31
0.0
  0
LINE
  5
252
330
1F
100
AcDbEntity
  8
Make2D$visible$lines
 60
     1
100
AcDbLine
 10
98.29055520480446
 20
35.75787004574674
 30
0.0
 11
88.58168911200926
 21
33.29306327069207
 31
0.0
  0
LINE
  5
253
330
1F
100
AcDbEntity
  8
Make2D$visible$lines
 60
     1
100
AcDbLine
 10
98.29055520480446
 20
35.75787004574674
 30
0.0
 11
98.12663779473678
 21
35.87676270823096
 31
0.0
  0
LINE
  5
254
330
1F
100
AcDbEntity
  8
Make2D$visible$lines
 60
     1
100
AcDbLine
 10
98.12663779473678
 20
35.87676270823096
 30
0.0
 11
88.57416272722628
 21
33.46677852325665
 31
0.0
  0
LINE
  5
255
330
1F
100
AcDbEntity
  8
Make2D$visible$lines
 60
     1
100
AcDbLine
 10
100.257369979017
 20
47.43743498141326
 30
0.0
 11
98.12663779473678
 21
35.87676270823096
 31
0.0
  0
LINE
  5
256
330
1F
100
AcDbEntity
  8
Make2D$visible$lines
 60
     1
100
AcDbLine
 10
88.6174343232171
 20
32.46309817344348
 30
0.0
 11
88.60054520591007
 21
32.48034183438261
 31
0.0
  0
SPLINE
  5
257
330
1F
100
AcDbEntity
  8
Make2D$visible$lines
 60
     1
100
AcDbSpline
210
0.0
220
0.0
230
1.0
 70
    12
 71
     2
 72
     8
 73
     5
 74
     0
 42
0.000000001
 43
0.0000000001
 40
0.0
 40
0.0
 40
0.0
 40
20.021709439929
 40
20.021709439929
 40
20.05998236136134
 40
20.05998236136134
 40
20.05998236136134
 10
87.75793135054629
 20
46.20410143570439
 30
0.0
 41
68.20072035184975
 10
94.929303913315
 20
47.18292742617015
 30
0.0
 41
72.87614010614521
 10
101.23598266449
 20
48.04373071328662
 30
0.0
 41
77.55155986044069
 10
101.2263641320414
 20
48.04650817882037
 30
0.0
 41
77.56761671430505
 10
101.2167495809296
 20
48.04928449469578
 30
0.0
 41
77.58367356816942
  0
SPLINE
  5
258
330
1F
100
AcDbEntity
  8
Make2D$visible$lines
 60
     1
100
AcDbSpline
210
0.0
220
0.0
230
1.0
 70
    12
 71
     2
 72
     8
 73
     5
 74
     0
 42
0.000000001
 43
0.0000000001
 40
60.03557693101487
 40
60.03557693101487
 40
60.03557693101487
 40
60.06512550711838
 40
60.06512550711838
 40
80.08683213437877
 40
80.08683213437877
 40
80.08683213437877
 10
81.25746878231037
 20
49.221519764429
 30
0.0
 41
85.01415882237212
 10
81.24786779740232
 20
49.22052626425775
 30
0.0
 41
85.00725871242696
 10
81.23826525372789
 20
49.21953260278694
 30
0.0
 41
85.00035860248181
 10
84.14063335251322
 20
47.87714925163735
 30
0.0
 41
76.60053947716578
 10
87.75793135054629
 20
46.20410143570439
 30
0.0
 41
68.20072035184975
  0
ENDSEC
  0
SECTION
  2
OBJECTS
  0
DICTIONARY
  5
C
330
0
100
AcDbDictionary
281
     1
  3
ACAD_DETAILVIEWSTYLE
350
294
  3
ACAD_GROUP
350
D
  3
ACAD_LAYOUT
350
1A
  3
ACAD_MATERIAL
350
43
  3
ACAD_MLEADERSTYLE
350
293
  3
ACAD_MLINESTYLE
350
17
  3
ACAD_PLOTSETTINGS
350
19
  3
ACAD_PLOTSTYLENAME
350
E
  3
ACAD_SCALELIST
350
47
  3
ACAD_SECTIONVIEWSTYLE
350
295
  3
ACAD_TABLESTYLE
350
292
  3
ACAD_VISUALSTYLE
350
2A
  3
AcDbVariableDictionary
350
259
  0
DICTIONARY
  5
294
102
{ACAD_REACTORS
330
C
102
}
330
C
100
AcDbDictionary
281
     1
  0
DICTIONARY
  5
D
102
{ACAD_REACTORS
330
C
102
}
330
C
100
AcDbDictionary
281
     1
  0
DICTIONARY
  5
1A
102
{ACAD_REACTORS
330
C
102
}
330
C
100
AcDbDictionary
281
     1
  3
Layout1
350
1E
  3
Layout2
350
26
  3
Model
350
22
  0
DICTIONARY
  5
43
102
{ACAD_REACTORS
330
C
102
}
330
C
100
AcDbDictionary
281
     1
  3
ByBlock
350
45
  3
ByLayer
350
44
  3
Global
350
46
  0
DICTIONARY
  5
293
102
{ACAD_REACTORS
330
C
102
}
330
C
100
AcDbDictionary
281
     1
  0
DICTIONARY
  5
17
102
{ACAD_REACTORS
330
C
102
}
330
C
100
AcDbDictionary
281
     1
  3
Standard
350
18
  0
DICTIONARY
  5
19
102
{ACAD_REACTORS
330
C
102
}
330
C
100
AcDbDictionary
281
     1
  0
ACDBDICTIONARYWDFLT
  5
E
102
{ACAD_REACTORS
330
C
102
}
330
C
100
AcDbDictionary
281
     1
  3
Normal
350
F
100
AcDbDictionaryWithDefault
340
F
  0
DICTIONARY
  5
47
102
{ACAD_REACTORS
330
C
102
}
330
C
100
AcDbDictionary
281
     1
  3
A0
350
48
  3
A1
350
49
  3
A2
350
4A
  3
A3
350
4B
  3
A4
350
4C
  3
A5
350
4D
  3
A6
350
4E
  3
A7
350
4F
  3
A8
350
50
  3
A9
350
51
  3
B0
350
52
  3
B1
350
53
  3
B2
350
54
  3
B3
350
55
  3
B4
350
56
  3
B5
350
57
  3
B6
350
58
  3
B7
350
59
  3
B8
350
5A
  3
B9
350
5B
  3
C0
350
5C
  3
C1
350
5D
  3
C2
350
5E
  3
C3
350
5F
  3
C4
350
60
  3
C5
350
61
  3
C6
350
62
  3
C7
350
63
  3
C8
350
64
  3
C9
350
65
  3
D0
350
66
  3
D1
350
67
  3
D2
350
68
  0
DICTIONARY
  5
295
102
{ACAD_REACTORS
330
C
102
}
330
C
100
AcDbDictionary
281
     1
  0
DICTIONARY
  5
292
102
{ACAD_REACTORS
330
C
102
}
330
C
100
AcDbDictionary
281
     1
  0
DICTIONARY
  5
2A
102
{ACAD_REACTORS
330
C
102
}
330
C
100
AcDbDictionary
281
     1
  3
2dWireframe
350
2F
  3
Basic
350
32
  3
Brighten
350
36
  3
ColorChange
350
3A
  3
Conceptual
350
34
  3
Dim
350
35
  3
EdgeColorOff
350
3D
  3
Facepattern
350
39
  3
Flat
350
2B
  3
FlatWithEdges
350
2C
  3
Gouraud
350
2D
  3
GouraudWithEdges
350
2E
  3
Hidden
350
31
  3
JitterOff
350
3B
  3
Linepattern
350
38
  3
OverhangOff
350
3C
  3
Realistic
350
33
  3
Shaded
350
42
  3
Shaded with edges
350
41
  3
Shades of Gray
350
3E
  3
Sketchy
350
3F
  3
Thicken
350
37
  3
Wireframe
350
30
  3
X-Ray
350
40
  0
DICTIONARY
  5
259
102
{ACAD_REACTORS
330
C
102
}
330
C
100
AcDbDictionary
281
     1
  3
CANNOSCALE
350
25A
  3
MSLTSCALE
350
25B
  0
LAYOUT
  5
1E
102
{ACAD_REACTORS
330
1A
102
}
330
1A
100
AcDbPlotSettings
  1

  2
none_device
  4

  6

 40
0.0
 41
0.0
 42
0.0
 43
0.0
 44
0.0
 45
0.0
 46
0.0
 47
0.0
 48
0.0
 49
0.0
140
0.0
141
0.0
142
1.0
143
1.0
 70
   688
 72
     0
 73
     0
 74
     5
  7

 75
    16
 76
     0
 77
     2
 78
   300
147
1.0
148
0.0
149
0.0
100
AcDbLayout
  1
Layout1
 70
     1
 71
     1
 10
0.0
 20
0.0
 11
12.0
 21
9.0
 12
0.0
 22
0.0
 32
0.0
 14
1.000000000000000E+20
 24
1.000000000000000E+20
 34
1.000000000000000E+20
 15
-1.000000000000000E+20
 25
-1.000000000000000E+20
 35
-1.000000000000000E+20
146
0.0
 13
0.0
 23
0.0
 33
0.0
 16
1.0
 26
0.0
 36
0.0
 17
0.0
 27
1.0
 37
0.0
 76
     0
330
1B
  0
LAYOUT
  5
26
102
{ACAD_REACTORS
330
1A
102
}
330
1A
100
AcDbPlotSettings
  1

  2
none_device
  4

  6

 40
0.0
 41
0.0
 42
0.0
 43
0.0
 44
0.0
 45
0.0
 46
0.0
 47
0.0
 48
0.0
 49
0.0
140
0.0
141
0.0
142
1.0
143
1.0
 70
   688
 72
     0
 73
     0
 74
     5
  7

 75
    16
 76
     0
 77
     2
 78
   300
147
1.0
148
0.0
149
0.0
100
AcDbLayout
  1
Layout2
 70
     1
 71
     2
 10
0.0
 20
0.0
 11
0.0
 21
0.0
 12
0.0
 22
0.0
 32
0.0
 14
0.0
 24
0.0
 34
0.0
 15
0.0
 25
0.0
 35
0.0
146
0.0
 13
0.0
 23
0.0
 33
0.0
 16
1.0
 26
0.0
 36
0.0
 17
0.0
 27
1.0
 37
0.0
 76
     0
330
23
  0
LAYOUT
  5
22
102
{ACAD_REACTORS
330
1A
102
}
330
1A
100
AcDbPlotSettings
  1

  2
none_device
  4
Letter_(8.50_x_11.00_Inches)
  6

 40
6.35
 41
6.35
 42
6.35000508
 43
6.35000508
 44
215.9
 45
279.4
 46
0.0
 47
0.0
 48
0.0
 49
0.0
140
0.0
141
0.0
142
1.0
143
1.0
 70
  1712
 72
     0
 73
     0
 74
     0
  7

 75
     0
 76
     0
 77
     2
 78
   300
147
1.0
148
0.0
149
0.0
100
AcDbLayout
  1
Model
 70
     1
 71
     0
 10
0.0
 20
0.0
 11
12.0
 21
9.0
 12
0.0
 22
0.0
 32
0.0
 14
-4.014126542894565
 24
-7.53355895505322
 34
0.0
 15
101.2511719596233
 25
52.41755428215291
 35
19.13405394245141
146
0.0
 13
0.0
 23
0.0
 33
0.0
 16
1.0
 26
0.0
 36
0.0
 17
0.0
 27
1.0
 37
0.0
 76
     0
330
1F
331
29
  0
MATERIAL
  5
45
102
{ACAD_REACTORS
330
43
102
}
102
{ACAD_XDICTIONARY
360
28E
102
}
330
43
100
AcDbMaterial
  1
ByBlock
  0
MATERIAL
  5
44
102
{ACAD_REACTORS
330
43
102
}
102
{ACAD_XDICTIONARY
360
28C
102
}
330
43
100
AcDbMaterial
  1
ByLayer
  0
MATERIAL
  5
46
102
{ACAD_REACTORS
330
43
102
}
102
{ACAD_XDICTIONARY
360
290
102
}
330
43
100
AcDbMaterial
  1
Global
  0
MLINESTYLE
  5
18
102
{ACAD_REACTORS
330
17
102
}
330
17
100
AcDbMlineStyle
  2
Standard
 70
     0
  3

 62
   256
 51
90.0
 52
90.0
 71
     2
 49
0.5
 62
   256
  6
BYLAYER
 49
-0.5
 62
   256
  6
BYLAYER
  0
ACDBPLACEHOLDER
  5
F
102
{ACAD_REACTORS
330
E
102
}
330
E
  0
SCALE
  5
48
102
{ACAD_REACTORS
330
47
102
}
330
47
100
AcDbScale
 70
     0
300
1:1
140
1.0
141
1.0
290
     1
  0
SCALE
  5
49
102
{ACAD_REACTORS
330
47
102
}
330
47
100
AcDbScale
 70
     0
300
1:2
140
1.0
141
2.0
290
     0
  0
SCALE
  5
4A
102
{ACAD_REACTORS
330
47
102
}
330
47
100
AcDbScale
 70
     0
300
1:4
140
1.0
141
4.0
290
     0
  0
SCALE
  5
4B
102
{ACAD_REACTORS
330
47
102
}
330
47
100
AcDbScale
 70
     0
300
1:5
140
1.0
141
5.0
290
     0
  0
SCALE
  5
4C
102
{ACAD_REACTORS
330
47
102
}
330
47
100
AcDbScale
 70
     0
300
1:8
140
1.0
141
8.0
290
     0
  0
SCALE
  5
4D
102
{ACAD_REACTORS
330
47
102
}
330
47
100
AcDbScale
 70
     0
300
1:10
140
1.0
141
10.0
290
     0
  0
SCALE
  5
4E
102
{ACAD_REACTORS
330
47
102
}
330
47
100
AcDbScale
 70
     0
300
1:16
140
1.0
141
16.0
290
     0
  0
SCALE
  5
4F
102
{ACAD_REACTORS
330
47
102
}
330
47
100
AcDbScale
 70
     0
300
1:20
140
1.0
141
20.0
290
     0
  0
SCALE
  5
50
102
{ACAD_REACTORS
330
47
102
}
330
47
100
AcDbScale
 70
     0
300
1:30
140
1.0
141
30.0
290
     0
  0
SCALE
  5
51
102
{ACAD_REACTORS
330
47
102
}
330
47
100
AcDbScale
 70
     0
300
1:40
140
1.0
141
40.0
290
     0
  0
SCALE
  5
52
102
{ACAD_REACTORS
330
47
102
}
330
47
100
AcDbScale
 70
     0
300
1:50
140
1.0
141
50.0
290
     0
  0
SCALE
  5
53
102
{ACAD_REACTORS
330
47
102
}
330
47
100
AcDbScale
 70
     0
300
1:100
140
1.0
141
100.0
290
     0
  0
SCALE
  5
54
102
{ACAD_REACTORS
330
47
102
}
330
47
100
AcDbScale
 70
     0
300
2:1
140
2.0
141
1.0
290
     0
  0
SCALE
  5
55
102
{ACAD_REACTORS
330
47
102
}
330
47
100
AcDbScale
 70
     0
300
4:1
140
4.0
141
1.0
290
     0
  0
SCALE
  5
56
102
{ACAD_REACTORS
330
47
102
}
330
47
100
AcDbScale
 70
     0
300
8:1
140
8.0
141
1.0
290
     0
  0
SCALE
  5
57
102
{ACAD_REACTORS
330
47
102
}
330
47
100
AcDbScale
 70
     0
300
10:1
140
10.0
141
1.0
290
     0
  0
SCALE
  5
58
102
{ACAD_REACTORS
330
47
102
}
330
47
100
AcDbScale
 70
     0
300
100:1
140
100.0
141
1.0
290
     0
  0
SCALE
  5
59
102
{ACAD_REACTORS
330
47
102
}
330
47
100
AcDbScale
 70
     0
300
1/128" = 1'-0"
140
0.0078125
141
12.0
290
     0
  0
SCALE
  5
5A
102
{ACAD_REACTORS
330
47
102
}
330
47
100
AcDbScale
 70
     0
300
1/64" = 1'-0"
140
0.015625
141
12.0
290
     0
  0
SCALE
  5
5B
102
{ACAD_REACTORS
330
47
102
}
330
47
100
AcDbScale
 70
     0
300
1/32" = 1'-0"
140
0.03125
141
12.0
290
     0
  0
SCALE
  5
5C
102
{ACAD_REACTORS
330
47
102
}
330
47
100
AcDbScale
 70
     0
300
1/16" = 1'-0"
140
0.0625
141
12.0
290
     0
  0
SCALE
  5
5D
102
{ACAD_REACTORS
330
47
102
}
330
47
100
AcDbScale
 70
     0
300
3/32" = 1'-0"
140
0.09375
141
12.0
290
     0
  0
SCALE
  5
5E
102
{ACAD_REACTORS
330
47
102
}
330
47
100
AcDbScale
 70
     0
300
1/8" = 1'-0"
140
0.125
141
12.0
290
     0
  0
SCALE
  5
5F
102
{ACAD_REACTORS
330
47
102
}
330
47
100
AcDbScale
 70
     0
300
3/16" = 1'-0"
140
0.1875
141
12.0
290
     0
  0
SCALE
  5
60
102
{ACAD_REACTORS
330
47
102
}
330
47
100
AcDbScale
 70
     0
300
1/4" = 1'-0"
140
0.25
141
12.0
290
     0
  0
SCALE
  5
61
102
{ACAD_REACTORS
330
47
102
}
330
47
100
AcDbScale
 70
     0
300
3/8" = 1'-0"
140
0.375
141
12.0
290
     0
  0
SCALE
  5
62
102
{ACAD_REACTORS
330
47
102
}
330
47
100
AcDbScale
 70
     0
300
1/2" = 1'-0"
140
0.5
141
12.0
290
     0
  0
SCALE
  5
63
102
{ACAD_REACTORS
330
47
102
}
330
47
100
AcDbScale
 70
     0
300
3/4" = 1'-0"
140
0.75
141
12.0
290
     0
  0
SCALE
  5
64
102
{ACAD_REACTORS
330
47
102
}
330
47
100
AcDbScale
 70
     0
300
1" = 1'-0"
140
1.0
141
12.0
290
     0
  0
SCALE
  5
65
102
{ACAD_REACTORS
330
47
102
}
330
47
100
AcDbScale
 70
     0
300
1-1/2" = 1'-0"
140
1.5
141
12.0
290
     0
  0
SCALE
  5
66
102
{ACAD_REACTORS
330
47
102
}
330
47
100
AcDbScale
 70
     0
300
3" = 1'-0"
140
3.0
141
12.0
290
     0
  0
SCALE
  5
67
102
{ACAD_REACTORS
330
47
102
}
330
47
100
AcDbScale
 70
     0
300
6" = 1'-0"
140
6.0
141
12.0
290
     0
  0
SCALE
  5
68
102
{ACAD_REACTORS
330
47
102
}
330
47
100
AcDbScale
 70
     0
300
1'-0" = 1'-0"
140
12.0
141
12.0
290
     0
  0
VISUALSTYLE
  5
2F
102
{ACAD_REACTORS
330
2A
102
}
102
{ACAD_XDICTIONARY
360
264
102
}
330
2A
100
AcDbVisualStyle
  2
2dWireframe
 70
     4
 71
     0
 72
     2
 73
     0
 90
        0
 40
0.6
 41
30.0
 62
     5
 63
     7
421
 16777215
 74
     1
 91
        4
 64
     7
 65
   257
 75
     1
175
     1
 42
1.0
 92
        0
 66
   257
 43
1.0
 76
     1
 77
     6
 78
     2
 67
     7
 79
     5
170
     0
171
     0
290
     0
174
     0
 93
        1
 44
0.0
173
     0
291
     0
 45
0.0
1001
ACAD
1000
AcDbSavedByObjectVersion
1070
     0
  0
VISUALSTYLE
  5
32
102
{ACAD_REACTORS
330
2A
102
}
102
{ACAD_XDICTIONARY
360
26A
102
}
330
2A
100
AcDbVisualStyle
  2
Basic
 70
     7
 71
     1
 72
     0
 73
     1
 90
        0
 40
0.6
 41
30.0
 62
     5
 63
     7
421
 16777215
 74
     0
 91
        4
 64
     7
 65
   257
 75
     1
175
     1
 42
1.0
 92
        8
 66
     7
 43
1.0
 76
     1
 77
     6
 78
     2
 67
     7
 79
     5
170
     0
171
     0
290
     0
174
     0
 93
        1
 44
0.0
173
     0
291
     1
 45
0.0
1001
ACAD
1000
AcDbSavedByObjectVersion
1070
     0
  0
VISUALSTYLE
  5
36
102
{ACAD_REACTORS
330
2A
102
}
102
{ACAD_XDICTIONARY
360
272
102
}
330
2A
100
AcDbVisualStyle
  2
Brighten
 70
    12
 71
     2
 72
     2
 73
     0
 90
        0
 40
0.6
 41
30.0
 62
     5
 63
     7
421
 16777215
 74
     1
 91
        4
 64
     7
 65
   257
 75
     1
175
     1
 42
1.0
 92
        8
 66
     7
 43
1.0
 76
     1
 77
     6
 78
     2
 67
     7
 79
     5
170
     0
171
     0
290
     0
174
     0
 93
        1
 44
50.0
173
     0
291
     1
 45
0.0
1001
ACAD
1000
AcDbSavedByObjectVersion
1070
     0
  0
VISUALSTYLE
  5
3A
102
{ACAD_REACTORS
330
2A
102
}
102
{ACAD_XDICTIONARY
360
27A
102
}
330
2A
100
AcDbVisualStyle
  2
ColorChange
 70
    16
 71
     2
 72
     2
 73
     3
 90
        0
 40
0.6
 41
30.0
 62
     5
 63
     8
421
  8421504
 74
     1
 91
        4
 64
     7
 65
   257
 75
     1
175
     1
 42
1.0
 92
        8
 66
     8
424
  8421504
 43
1.0
 76
     1
 77
     6
 78
     2
 67
     7
 79
     5
170
     0
171
     0
290
     0
174
     0
 93
        1
 44
0.0
173
     0
291
     1
 45
0.0
1001
ACAD
1000
AcDbSavedByObjectVersion
1070
     0
  0
VISUALSTYLE
  5
34
102
{ACAD_REACTORS
330
2A
102
}
102
{ACAD_XDICTIONARY
360
26E
102
}
330
2A
100
AcDbVisualStyle
  2
Conceptual
 70
     9
 71
     3
 72
     2
 73
     0
 90
        0
 40
0.6
 41
30.0
 62
     5
 63
     7
421
 16777215
 74
     2
 91
        2
 64
     7
 65
   257
 75
     1
175
     1
 42
179.0
 92
        8
 66
     7
 43
1.0
 76
     1
 77
     6
 78
     2
 67
     7
 79
     3
170
     0
171
     0
290
     0
174
     0
 93
        1
 44
0.0
173
     0
291
     0
 45
0.0
1001
ACAD
1000
AcDbSavedByObjectVersion
1070
     0
  0
VISUALSTYLE
  5
35
102
{ACAD_REACTORS
330
2A
102
}
102
{ACAD_XDICTIONARY
360
270
102
}
330
2A
100
AcDbVisualStyle
  2
Dim
 70
    11
 71
     2
 72
     2
 73
     0
 90
        0
 40
0.6
 41
30.0
 62
     5
 63
     7
421
 16777215
 74
     1
 91
        4
 64
     7
 65
   257
 75
     1
175
     1
 42
1.0
 92
        8
 66
     7
 43
1.0
 76
     1
 77
     6
 78
     2
 67
     7
 79
     5
170
     0
171
     0
290
     0
174
     0
 93
        1
 44
-50.0
173
     0
291
     1
 45
0.0
1001
ACAD
1000
AcDbSavedByObjectVersion
1070
     0
  0
VISUALSTYLE
  5
3D
102
{ACAD_REACTORS
330
2A
102
}
102
{ACAD_XDICTIONARY
360
280
102
}
330
2A
100
AcDbVisualStyle
  2
EdgeColorOff
 70
    22
 71
     2
 72
     2
 73
     0
 90
        0
 40
0.6
 41
30.0
 62
     5
 63
     7
421
 16777215
 74
     1
 91
        4
 64
     7
 65
   257
 75
     1
175
     1
 42
1.0
 92
        8
 66
     7
 43
1.0
 76
     1
 77
     6
 78
     2
 67
     7
 79
     5
170
     0
171
     0
290
     0
174
     0
 93
        1
 44
0.0
173
     0
291
     1
 45
0.0
1001
ACAD
1000
AcDbSavedByObjectVersion
1070
     0
  0
VISUALSTYLE
  5
39
102
{ACAD_REACTORS
330
2A
102
}
102
{ACAD_XDICTIONARY
360
278
102
}
330
2A
100
AcDbVisualStyle
  2
Facepattern
 70
    15
 71
     2
 72
     2
 73
     0
 90
        0
 40
0.6
 41
30.0
 62
     5
 63
     7
421
 16777215
 74
     1
 91
        4
 64
     7
 65
   257
 75
     1
175
     1
 42
1.0
 92
        8
 66
     7
 43
1.0
 76
     1
 77
     6
 78
     2
 67
     7
 79
     5
170
     0
171
     0
290
     0
174
     0
 93
        1
 44
0.0
173
     0
291
     1
 45
0.0
1001
ACAD
1000
AcDbSavedByObjectVersion
1070
     0
  0
VISUALSTYLE
  5
2B
102
{ACAD_REACTORS
330
2A
102
}
102
{ACAD_XDICTIONARY
360
25C
102
}
330
2A
100
AcDbVisualStyle
  2
Flat
 70
     0
 71
     2
 72
     1
 73
     1
 90
        2
 40
0.6
 41
30.0
 62
     5
 63
     7
421
 16777215
 74
     0
 91
        0
 64
     7
 65
   257
 75
     1
175
     1
 42
1.0
 92
        8
 66
     7
 43
1.0
 76
     1
 77
     6
 78
     2
 67
     7
 79
     5
170
     0
171
     0
290
     0
174
     0
 93
       13
 44
0.0
173
     0
291
     1
 45
0.0
1001
ACAD
1000
AcDbSavedByObjectVersion
1070
     0
  0
VISUALSTYLE
  5
2C
102
{ACAD_REACTORS
330
2A
102
}
102
{ACAD_XDICTIONARY
360
25E
102
}
330
2A
100
AcDbVisualStyle
  2
FlatWithEdges
 70
     1
 71
     2
 72
     1
 73
     1
 90
        2
 40
0.6
 41
30.0
 62
     5
 63
     7
421
 16777215
 74
     1
 91
        0
 64
     7
 65
   257
 75
     1
175
     1
 42
1.0
 92
        0
 66
   257
 43
1.0
 76
     1
 77
     6
 78
     2
 67
     7
 79
     5
170
     0
171
     0
290
     0
174
     0
 93
       13
 44
0.0
173
     0
291
     1
 45
0.0
1001
ACAD
1000
AcDbSavedByObjectVersion
1070
     0
  0
VISUALSTYLE
  5
2D
102
{ACAD_REACTORS
330
2A
102
}
102
{ACAD_XDICTIONARY
360
260
102
}
330
2A
100
AcDbVisualStyle
  2
Gouraud
 70
     2
 71
     2
 72
     2
 73
     1
 90
        2
 40
0.6
 41
30.0
 62
     5
 63
     7
421
 16777215
 74
     0
 91
        0
 64
     7
 65
   257
 75
     1
175
     1
 42
1.0
 92
        0
 66
     7
 43
1.0
 76
     1
 77
     6
 78
     2
 67
     7
 79
     5
170
     0
171
     0
290
     0
174
     0
 93
       13
 44
0.0
173
     0
291
     1
 45
0.0
1001
ACAD
1000
AcDbSavedByObjectVersion
1070
     0
  0
VISUALSTYLE
  5
2E
102
{ACAD_REACTORS
330
2A
102
}
102
{ACAD_XDICTIONARY
360
262
102
}
330
2A
100
AcDbVisualStyle
  2
GouraudWithEdges
 70
     3
 71
     2
 72
     2
 73
     1
 90
        2
 40
0.6
 41
30.0
 62
     5
 63
     7
421
 16777215
 74
     1
 91
        0
 64
     7
 65
   257
 75
     1
175
     1
 42
1.0
 92
        0
 66
   257
 43
1.0
 76
     1
 77
     6
 78
     2
 67
     7
 79
     5
170
     0
171
     0
290
     0
174
     0
 93
       13
 44
0.0
173
     0
291
     1
 45
0.0
1001
ACAD
1000
AcDbSavedByObjectVersion
1070
     0
  0
VISUALSTYLE
  5
31
102
{ACAD_REACTORS
330
2A
102
}
102
{ACAD_XDICTIONARY
360
268
102
}
330
2A
100
AcDbVisualStyle
  2
Hidden
 70
     6
 71
     1
 72
     2
 73
     2
 90
        0
 40
0.6
 41
30.0
 62
     5
 63
     7
421
 16777215
 74
     2
 91
        2
 64
     7
 65
   257
 75
     2
175
     1
 42
40.0
 92
        0
 66
   257
 43
1.0
 76
     1
 77
     6
 78
     2
 67
     7
 79
     3
170
     0
171
     0
290
     0
174
     0
 93
        1
 44
0.0
173
     0
291
     0
 45
0.0
1001
ACAD
1000
AcDbSavedByObjectVersion
1070
     0
  0
VISUALSTYLE
  5
3B
102
{ACAD_REACTORS
330
2A
102
}
102
{ACAD_XDICTIONARY
360
27C
102
}
330
2A
100
AcDbVisualStyle
  2
JitterOff
 70
    20
 71
     2
 72
     2
 73
     0
 90
        0
 40
0.6
 41
30.0
 62
     5
 63
     7
421
 16777215
 74
     1
 91
        4
 64
     7
 65
   257
 75
     1
175
     1
 42
1.0
 92
       10
 66
     7
 43
1.0
 76
     1
 77
     6
 78
     2
 67
     7
 79
     5
170
     0
171
     0
290
     0
174
     0
 93
        1
 44
0.0
173
     0
291
     1
 45
0.0
1001
ACAD
1000
AcDbSavedByObjectVersion
1070
     0
  0
VISUALSTYLE
  5
38
102
{ACAD_REACTORS
330
2A
102
}
102
{ACAD_XDICTIONARY
360
276
102
}
330
2A
100
AcDbVisualStyle
  2
Linepattern
 70
    14
 71
     2
 72
     2
 73
     0
 90
        0
 40
0.6
 41
30.0
 62
     5
 63
     7
421
 16777215
 74
     1
 91
        4
 64
     7
 65
   257
 75
     7
175
     7
 42
1.0
 92
        8
 66
     7
 43
1.0
 76
     1
 77
     6
 78
     2
 67
     7
 79
     5
170
     0
171
     0
290
     0
174
     0
 93
        1
 44
0.0
173
     0
291
     1
 45
0.0
1001
ACAD
1000
AcDbSavedByObjectVersion
1070
     0
  0
VISUALSTYLE
  5
3C
102
{ACAD_REACTORS
330
2A
102
}
102
{ACAD_XDICTIONARY
360
27E
102
}
330
2A
100
AcDbVisualStyle
  2
OverhangOff
 70
    21
 71
     2
 72
     2
 73
     0
 90
        0
 40
0.6
 41
30.0
 62
     5
 63
     7
421
 16777215
 74
     1
 91
        4
 64
     7
 65
   257
 75
     1
175
     1
 42
1.0
 92
        9
 66
     7
 43
1.0
 76
     1
 77
     6
 78
     2
 67
     7
 79
     5
170
     0
171
     0
290
     0
174
     0
 93
        1
 44
0.0
173
     0
291
     1
 45
0.0
1001
ACAD
1000
AcDbSavedByObjectVersion
1070
     0
  0
VISUALSTYLE
  5
33
102
{ACAD_REACTORS
330
2A
102
}
102
{ACAD_XDICTIONARY
360
26C
102
}
330
2A
100
AcDbVisualStyle
  2
Realistic
 70
     8
 71
     2
 72
     3
 73
     0
 90
        2
 40
0.6
 41
30.0
 62
     5
 63
     7
421
 16777215
 74
     0
 91
        0
 64
     7
 65
   257
 75
     1
175
     1
 42
1.0
 92
        8
 66
   257
 43
1.0
 76
     1
 77
     6
 78
     2
 67
     7
 79
     3
170
     0
171
     0
290
     0
174
     0
 93
       13
 44
0.0
173
     0
291
     0
 45
0.0
1001
ACAD
1000
AcDbSavedByObjectVersion
1070
     0
  0
VISUALSTYLE
  5
42
102
{ACAD_REACTORS
330
2A
102
}
102
{ACAD_XDICTIONARY
360
28A
102
}
330
2A
100
AcDbVisualStyle
  2
Shaded
 70
    27
 71
     2
 72
     2
 73
     1
 90
        2
 40
0.6
 41
30.0
 62
     5
 63
     7
421
 16777215
 74
     0
 91
        4
 64
     7
 65
   257
 75
     1
175
     1
 42
1.0
 92
        8
 66
   257
 43
1.0
 76
     1
 77
     6
 78
     2
 67
     8
425
  7895160
 79
     3
170
     0
171
     0
290
     0
174
     0
 93
        5
 44
0.0
173
     0
291
     0
 45
0.0
1001
ACAD
1000
AcDbSavedByObjectVersion
1070
     0
  0
VISUALSTYLE
  5
41
102
{ACAD_REACTORS
330
2A
102
}
102
{ACAD_XDICTIONARY
360
288
102
}
330
2A
100
AcDbVisualStyle
  2
Shaded with edges
 70
    26
 71
     2
 72
     2
 73
     1
 90
        2
 40
0.6
 41
30.0
 62
     5
 63
     7
421
 16777215
 74
     1
 91
       10
 64
     7
 65
   257
 75
     2
175
     1
 42
1.0
 92
        8
 66
   257
 43
1.0
 76
     1
 77
     6
 78
     2
 67
     7
 79
     3
170
     0
171
     0
290
     0
174
     0
 93
        5
 44
0.0
173
     0
291
     0
 45
0.0
1001
ACAD
1000
AcDbSavedByObjectVersion
1070
     0
  0
VISUALSTYLE
  5
3E
102
{ACAD_REACTORS
330
2A
102
}
102
{ACAD_XDICTIONARY
360
282
102
}
330
2A
100
AcDbVisualStyle
  2
Shades of Gray
 70
    23
 71
     2
 72
     2
 73
     3
 90
        0
 40
0.6
 41
30.0
 62
     5
 63
     7
421
 16777215
 74
     2
 91
        2
 64
     7
 65
     7
 75
     1
175
     1
 42
40.0
 92
        8
 66
     7
 43
1.0
 76
     1
 77
     6
 78
     2
 67
     7
 79
     3
170
     0
171
     0
290
     0
174
     0
 93
        1
 44
0.0
173
     0
291
     0
 45
0.0
1001
ACAD
1000
AcDbSavedByObjectVersion
1070
     0
  0
VISUALSTYLE
  5
3F
102
{ACAD_REACTORS
330
2A
102
}
102
{ACAD_XDICTIONARY
360
284
102
}
330
2A
100
AcDbVisualStyle
  2
Sketchy
 70
    24
 71
     1
 72
     2
 73
     2
 90
        0
 40
0.6
 41
30.0
 62
     5
 63
     7
421
 16777215
 74
     2
 91
        2
 64
     7
 65
     7
 75
     1
175
     1
 42
40.0
 92
       11
 66
     7
 43
1.0
 76
     1
 77
     6
 78
     2
 67
     7
 79
     6
170
     0
171
     0
290
     0
174
     0
 93
        1
 44
0.0
173
     0
291
     0
 45
0.0
1001
ACAD
1000
AcDbSavedByObjectVersion
1070
     0
  0
VISUALSTYLE
  5
37
102
{ACAD_REACTORS
330
2A
102
}
102
{ACAD_XDICTIONARY
360
274
102
}
330
2A
100
AcDbVisualStyle
  2
Thicken
 70
    13
 71
     2
 72
     2
 73
     0
 90
        0
 40
0.6
 41
30.0
 62
     5
 63
     7
421
 16777215
 74
     1
 91
        4
 64
     7
 65
   257
 75
     1
175
     1
 42
1.0
 92
       12
 66
     7
 43
1.0
 76
     1
 77
     6
 78
     2
 67
     7
 79
     5
170
     0
171
     0
290
     0
174
     0
 93
        1
 44
0.0
173
     0
291
     1
 45
0.0
1001
ACAD
1000
AcDbSavedByObjectVersion
1070
     0
  0
VISUALSTYLE
  5
30
102
{ACAD_REACTORS
330
2A
102
}
102
{ACAD_XDICTIONARY
360
266
102
}
330
2A
100
AcDbVisualStyle
  2
Wireframe
 70
     5
 71
     0
 72
     2
 73
     0
 90
        0
 40
0.6
 41
30.0
 62
     5
 63
     7
421
 16777215
 74
     1
 91
        4
 64
     7
 65
   257
 75
     1
175
     1
 42
1.0
 92
        0
 66
   257
 43
1.0
 76
     1
 77
     6
 78
     2
 67
     7
 79
     3
170
     0
171
     0
290
     0
174
     0
 93
        1
 44
0.0
173
     0
291
     0
 45
0.0
1001
ACAD
1000
AcDbSavedByObjectVersion
1070
     0
  0
VISUALSTYLE
  5
40
102
{ACAD_REACTORS
330
2A
102
}
102
{ACAD_XDICTIONARY
360
286
102
}
330
2A
100
AcDbVisualStyle
  2
X-Ray
 70
    25
 71
     2
 72
     2
 73
     1
 90
        1
 40
0.5
 41
30.0
 62
     5
 63
     7
421
 16777215
 74
     1
 91
        0
 64
     7
 65
   257
 75
     1
175
     1
 42
1.0
 92
        8
 66
     7
 43
1.0
 76
     1
 77
     6
 78
     2
 67
     7
 79
     3
170
     0
171
     0
290
     0
174
     0
 93
       13
 44
0.0
173
     0
291
     0
 45
0.0
1001
ACAD
1000
AcDbSavedByObjectVersion
1070
     0
  0
DICTIONARYVAR
  5
25A
102
{ACAD_REACTORS
330
259
102
}
330
259
100
DictionaryVariables
280
     0
  1
1:1
  0
DICTIONARYVAR
  5
25B
102
{ACAD_REACTORS
330
259
102
}
330
259
100
DictionaryVariables
280
     0
  1
1
  0
DICTIONARY
  5
28E
330
45
100
AcDbDictionary
280
     1
281
     1
  3
ACAD_XREC_ROUNDTRIP
360
28F
  0
DICTIONARY
  5
28C
330
44
100
AcDbDictionary
280
     1
281
     1
  3
ACAD_XREC_ROUNDTRIP
360
28D
  0
DICTIONARY
  5
290
330
46
100
AcDbDictionary
280
     1
281
     1
  3
ACAD_XREC_ROUNDTRIP
360
291
  0
DICTIONARY
  5
264
330
2F
100
AcDbDictionary
280
     1
281
     1
  3
ACAD_XREC_ROUNDTRIP
360
265
  0
DICTIONARY
  5
26A
330
32
100
AcDbDictionary
280
     1
281
     1
  3
ACAD_XREC_ROUNDTRIP
360
26B
  0
DICTIONARY
  5
272
330
36
100
AcDbDictionary
280
     1
281
     1
  3
ACAD_XREC_ROUNDTRIP
360
273
  0
DICTIONARY
  5
27A
330
3A
100
AcDbDictionary
280
     1
281
     1
  3
ACAD_XREC_ROUNDTRIP
360
27B
  0
DICTIONARY
  5
26E
330
34
100
AcDbDictionary
280
     1
281
     1
  3
ACAD_XREC_ROUNDTRIP
360
26F
  0
DICTIONARY
  5
270
330
35
100
AcDbDictionary
280
     1
281
     1
  3
ACAD_XREC_ROUNDTRIP
360
271
  0
DICTIONARY
  5
280
330
3D
100
AcDbDictionary
280
     1
281
     1
  3
ACAD_XREC_ROUNDTRIP
360
281
  0
DICTIONARY
  5
278
330
39
100
AcDbDictionary
280
     1
281
     1
  3
ACAD_XREC_ROUNDTRIP
360
279
  0
DICTIONARY
  5
25C
330
2B
100
AcDbDictionary
280
     1
281
     1
  3
ACAD_XREC_ROUNDTRIP
360
25D
  0
DICTIONARY
  5
25E
330
2C
100
AcDbDictionary
280
     1
281
     1
  3
ACAD_XREC_ROUNDTRIP
360
25F
  0
DICTIONARY
  5
260
330
2D
100
AcDbDictionary
280
     1
281
     1
  3
ACAD_XREC_ROUNDTRIP
360
261
  0
DICTIONARY
  5
262
330
2E
100
AcDbDictionary
280
     1
281
     1
  3
ACAD_XREC_ROUNDTRIP
360
263
  0
DICTIONARY
  5
268
330
31
100
AcDbDictionary
280
     1
281
     1
  3
ACAD_XREC_ROUNDTRIP
360
269
  0
DICTIONARY
  5
27C
330
3B
100
AcDbDictionary
280
     1
281
     1
  3
ACAD_XREC_ROUNDTRIP
360
27D
  0
DICTIONARY
  5
276
330
38
100
AcDbDictionary
280
     1
281
     1
  3
ACAD_XREC_ROUNDTRIP
360
277
  0
DICTIONARY
  5
27E
330
3C
100
AcDbDictionary
280
     1
281
     1
  3
ACAD_XREC_ROUNDTRIP
360
27F
  0
DICTIONARY
  5
26C
330
33
100
AcDbDictionary
280
     1
281
     1
  3
ACAD_XREC_ROUNDTRIP
360
26D
  0
DICTIONARY
  5
28A
330
42
100
AcDbDictionary
280
     1
281
     1
  3
ACAD_XREC_ROUNDTRIP
360
28B
  0
DICTIONARY
  5
288
330
41
100
AcDbDictionary
280
     1
281
     1
  3
ACAD_XREC_ROUNDTRIP
360
289
  0
DICTIONARY
  5
282
330
3E
100
AcDbDictionary
280
     1
281
     1
  3
ACAD_XREC_ROUNDTRIP
360
283
  0
DICTIONARY
  5
284
330
3F
100
AcDbDictionary
280
     1
281
     1
  3
ACAD_XREC_ROUNDTRIP
360
285
  0
DICTIONARY
  5
274
330
37
100
AcDbDictionary
280
     1
281
     1
  3
ACAD_XREC_ROUNDTRIP
360
275
  0
DICTIONARY
  5
266
330
30
100
AcDbDictionary
280
     1
281
     1
  3
ACAD_XREC_ROUNDTRIP
360
267
  0
DICTIONARY
  5
286
330
40
100
AcDbDictionary
280
     1
281
     1
  3
ACAD_XREC_ROUNDTRIP
360
287
  0
XRECORD
  5
28F
102
{ACAD_REACTORS
330
28E
102
}
330
28E
100
AcDbXrecord
280
     1
102
MATERIAL
148
0.0
149
0.0
149
0.0
 93
        0
 94
      127
282
     0
 72
     1
 77
     1
171
     1
175
     1
179
     1
273
     0
  0
XRECORD
  5
28D
102
{ACAD_REACTORS
330
28C
102
}
330
28C
100
AcDbXrecord
280
     1
102
MATERIAL
148
0.0
149
0.0
149
0.0
 93
        0
 94
      127
282
     0
 72
     1
 77
     1
171
     1
175
     1
179
     1
273
     0
  0
XRECORD
  5
291
102
{ACAD_REACTORS
330
290
102
}
330
290
100
AcDbXrecord
280
     1
102
MATERIAL
148
0.0
149
0.0
149
0.0
 93
        0
 94
      127
282
     0
 72
     1
 77
     1
171
     1
175
     1
179
     1
273
     0
  0
XRECORD
  5
265
102
{ACAD_REACTORS
330
264
102
}
330
264
100
AcDbXrecord
280
     1
102
RTVSPropertyOp0
 70
     1
102
RTVSPropertyOp1
 70
     1
102
RTVSPropertyOp2
 70
     1
102
RTVSPropertyOp3
 70
     1
102
RTVSPropertyOp4
 70
     1
102
RTVSPropertyOp5
 70
     1
102
RTVSPropertyOp6
 70
     1
102
RTVSPropertyOp7
 70
     1
102
RTVSPropertyOp8
 70
     1
102
RTVSPropertyOp9
 70
     1
102
RTVSPropertyOp10
 70
     1
102
RTVSPropertyOp11
 70
     1
102
RTVSPropertyOp12
 70
     1
102
RTVSPropertyOp13
 70
     1
102
RTVSPropertyOp14
 70
     1
102
RTVSPropertyOp15
 70
     1
102
RTVSPropertyOp16
 70
     1
102
RTVSPropertyOp17
 70
     1
102
RTVSPropertyOp18
 70
     1
102
RTVSPropertyOp19
 70
     1
102
RTVSPropertyOp20
 70
     1
102
RTVSPropertyOp21
 70
     1
102
RTVSPropertyOp22
 70
     1
102
RTVSPropertyOp23
 70
     1
102
RTVSPropertyOp24
 70
     1
102
RTVSPropertyOp25
 70
     1
102
RTVSPropertyOp26
 70
     1
102
RTVSPropertyOp27
 70
     1
102
RTVSPropertyOp28
 70
     1
102
RTVSPropertyOp29
 70
     1
102
RTVSPropertyOp30
 70
     1
102
RTVSPropertyOp31
 70
     1
102
RTVSPropertyOp32
 70
     1
102
RTVSPropertyOp33
 70
     1
102
RTVSPropertyOp34
 70
     1
102
RTVSPropertyOp35
 70
     1
102
RTVSPropertyOp36
 70
     1
102
RTVSPropertyOp37
 70
     1
102
RTVSPropertyOp38
 70
     1
102
RTVSPropertyOp39
 70
     1
102
RTVSPropertyOp40
 70
     1
102
RTVSPropertyOp41
 70
     1
102
RTVSPropertyOp42
 70
     1
102
RTVSPropertyOp43
 70
     1
102
RTVSPropertyOp44
 70
     1
102
RTVSPropertyOp45
 70
     1
102
RTVSPropertyOp46
 70
     1
102
RTVSPropertyOp47
 70
     1
102
RTVSPropertyOp48
 70
     1
102
RTVSPropertyOp49
 70
     1
102
RTVSPropertyOp50
 70
     1
102
RTVSPropertyOp51
 70
     0
102
RTVSPropertyOp52
 70
     0
102
RTVSPropertyOp53
 70
     1
102
RTVSPropertyOp54
 70
     1
102
RTVSPropertyOp55
 70
     1
102
RTVSPropertyOp56
 70
     1
102
RTVSPropertyOp57
 70
     1
102
RTVSPost2010Prop28
280
     1
102
RTVSPost2010PropOp28
 70
     1
102
RTVSPost2010Prop29
280
     1
102
RTVSPost2010PropOp29
 70
     1
102
RTVSPost2010Prop30
280
     0
102
RTVSPost2010PropOp30
 70
     1
102
RTVSPost2010Prop31
280
     0
102
RTVSPost2010PropOp31
 70
     1
102
RTVSPost2010Prop32
280
     0
102
RTVSPost2010PropOp32
 70
     1
102
RTVSPost2010Prop33
280
     0
102
RTVSPost2010PropOp33
 70
     1
102
RTVSPost2010Prop34
280
     0
102
RTVSPost2010PropOp34
 70
     1
102
RTVSPost2010Prop35
280
     0
102
RTVSPost2010PropOp35
 70
     1
102
RTVSPost2010Prop36
280
     0
102
RTVSPost2010PropOp36
 70
     1
102
RTVSPost2010Prop37
 90
       50
102
RTVSPost2010PropOp37
 70
     1
102
RTVSPost2010Prop38
140
0.0
102
RTVSPost2010PropOp38
 70
     1
102
RTVSPost2010Prop39
140
1.0
102
RTVSPost2010PropOp39
 70
     1
102
RTVSPost2010Prop40
 90
        0
102
RTVSPost2010PropOp40
 70
     1
102
RTVSPost2010Prop41ColorIndex
 90
       18
102
RTVSPost2010Prop41ColorRGB
 90
        0
102
RTVSPost2010PropOp41
 70
     1
102
RTVSPost2010Prop42
 90
       50
102
RTVSPost2010PropOp42
 70
     1
102
RTVSPost2010Prop43
 90
        3
102
RTVSPost2010PropOp43
 70
     1
102
RTVSPost2010Prop44ColorIndex
 90
        5
102
RTVSPost2010Prop44ColorRGB
 90
      255
102
RTVSPost2010PropOp44
 70
     1
102
RTVSPost2010Prop45
280
     0
102
RTVSPost2010PropOp45
 70
     1
102
RTVSPost2010Prop46
 90
       50
102
RTVSPost2010PropOp46
 70
     1
102
RTVSPost2010Prop47
 90
       50
102
RTVSPost2010PropOp47
 70
     1
102
RTVSPost2010Prop48
 90
       50
102
RTVSPost2010PropOp48
 70
     1
102
RTVSPost2010Prop49
280
     0
102
RTVSPost2010PropOp49
 70
     1
102
RTVSPost2010Prop50
 90
       50
102
RTVSPost2010PropOp50
 70
     1
102
RTVSPost2010Prop51ColorIndex
 90
      256
102
RTVSPost2010Prop51ColorRGB
 90
-16777216
102
RTVSPost2010PropOp51
 70
     0
102
RTVSPost2010Prop52
140
1.0
102
RTVSPost2010PropOp52
 70
     0
102
RTVSPost2010Prop53
 90
        2
102
RTVSPost2010PropOp53
 70
     1
102
RTVSPost2010Prop54
  1
strokes_ogs.tif
102
RTVSPost2010PropOp54
 70
     1
102
RTVSPost2010Prop55
280
     0
102
RTVSPost2010PropOp55
 70
     1
102
RTVSPost2010Prop56
140
1.0
102
RTVSPost2010PropOp56
 70
     1
102
RTVSPost2010Prop57
140
1.0
102
RTVSPost2010PropOp57
 70
     1
  0
XRECORD
  5
26B
102
{ACAD_REACTORS
330
26A
102
}
330
26A
100
AcDbXrecord
280
     1
102
RTVSPropertyOp0
 70
     1
102
RTVSPropertyOp1
 70
     1
102
RTVSPropertyOp2
 70
     1
102
RTVSPropertyOp3
 70
     1
102
RTVSPropertyOp4
 70
     1
102
RTVSPropertyOp5
 70
     1
102
RTVSPropertyOp6
 70
     1
102
RTVSPropertyOp7
 70
     1
102
RTVSPropertyOp8
 70
     1
102
RTVSPropertyOp9
 70
     1
102
RTVSPropertyOp10
 70
     1
102
RTVSPropertyOp11
 70
     1
102
RTVSPropertyOp12
 70
     1
102
RTVSPropertyOp13
 70
     1
102
RTVSPropertyOp14
 70
     1
102
RTVSPropertyOp15
 70
     1
102
RTVSPropertyOp16
 70
     1
102
RTVSPropertyOp17
 70
     1
102
RTVSPropertyOp18
 70
     1
102
RTVSPropertyOp19
 70
     1
102
RTVSPropertyOp20
 70
     1
102
RTVSPropertyOp21
 70
     1
102
RTVSPropertyOp22
 70
     1
102
RTVSPropertyOp23
 70
     1
102
RTVSPropertyOp24
 70
     1
102
RTVSPropertyOp25
 70
     1
102
RTVSPropertyOp26
 70
     1
102
RTVSPropertyOp27
 70
     1
102
RTVSPropertyOp28
 70
     1
102
RTVSPropertyOp29
 70
     1
102
RTVSPropertyOp30
 70
     1
102
RTVSPropertyOp31
 70
     1
102
RTVSPropertyOp32
 70
     1
102
RTVSPropertyOp33
 70
     1
102
RTVSPropertyOp34
 70
     1
102
RTVSPropertyOp35
 70
     1
102
RTVSPropertyOp36
 70
     1
102
RTVSPropertyOp37
 70
     1
102
RTVSPropertyOp38
 70
     1
102
RTVSPropertyOp39
 70
     1
102
RTVSPropertyOp40
 70
     1
102
RTVSPropertyOp41
 70
     1
102
RTVSPropertyOp42
 70
     1
102
RTVSPropertyOp43
 70
     1
102
RTVSPropertyOp44
 70
     1
102
RTVSPropertyOp45
 70
     1
102
RTVSPropertyOp46
 70
     1
102
RTVSPropertyOp47
 70
     1
102
RTVSPropertyOp48
 70
     1
102
RTVSPropertyOp49
 70
     1
102
RTVSPropertyOp50
 70
     1
102
RTVSPropertyOp51
 70
     0
102
RTVSPropertyOp52
 70
     0
102
RTVSPropertyOp53
 70
     1
102
RTVSPropertyOp54
 70
     1
102
RTVSPropertyOp55
 70
     1
102
RTVSPropertyOp56
 70
     1
102
RTVSPropertyOp57
 70
     1
102
RTVSPost2010Prop28
280
     0
102
RTVSPost2010PropOp28
 70
     1
102
RTVSPost2010Prop29
280
     1
102
RTVSPost2010PropOp29
 70
     1
102
RTVSPost2010Prop30
280
     1
102
RTVSPost2010PropOp30
 70
     1
102
RTVSPost2010Prop31
280
     0
102
RTVSPost2010PropOp31
 70
     1
102
RTVSPost2010Prop32
280
     0
102
RTVSPost2010PropOp32
 70
     1
102
RTVSPost2010Prop33
280
     0
102
RTVSPost2010PropOp33
 70
     1
102
RTVSPost2010Prop34
280
     0
102
RTVSPost2010PropOp34
 70
     1
102
RTVSPost2010Prop35
280
     0
102
RTVSPost2010PropOp35
 70
     1
102
RTVSPost2010Prop36
280
     0
102
RTVSPost2010PropOp36
 70
     1
102
RTVSPost2010Prop37
 90
       50
102
RTVSPost2010PropOp37
 70
     1
102
RTVSPost2010Prop38
140
0.0
102
RTVSPost2010PropOp38
 70
     1
102
RTVSPost2010Prop39
140
1.0
102
RTVSPost2010PropOp39
 70
     1
102
RTVSPost2010Prop40
 90
        0
102
RTVSPost2010PropOp40
 70
     1
102
RTVSPost2010Prop41ColorIndex
 90
       18
102
RTVSPost2010Prop41ColorRGB
 90
        0
102
RTVSPost2010PropOp41
 70
     1
102
RTVSPost2010Prop42
 90
       50
102
RTVSPost2010PropOp42
 70
     1
102
RTVSPost2010Prop43
 90
        3
102
RTVSPost2010PropOp43
 70
     1
102
RTVSPost2010Prop44ColorIndex
 90
        5
102
RTVSPost2010Prop44ColorRGB
 90
      255
102
RTVSPost2010PropOp44
 70
     1
102
RTVSPost2010Prop45
280
     0
102
RTVSPost2010PropOp45
 70
     1
102
RTVSPost2010Prop46
 90
       50
102
RTVSPost2010PropOp46
 70
     1
102
RTVSPost2010Prop47
 90
       50
102
RTVSPost2010PropOp47
 70
     1
102
RTVSPost2010Prop48
 90
       50
102
RTVSPost2010PropOp48
 70
     1
102
RTVSPost2010Prop49
280
     0
102
RTVSPost2010PropOp49
 70
     1
102
RTVSPost2010Prop50
 90
       50
102
RTVSPost2010PropOp50
 70
     1
102
RTVSPost2010Prop51ColorIndex
 90
      256
102
RTVSPost2010Prop51ColorRGB
 90
-16777216
102
RTVSPost2010PropOp51
 70
     0
102
RTVSPost2010Prop52
140
1.0
102
RTVSPost2010PropOp52
 70
     0
102
RTVSPost2010Prop53
 90
        2
102
RTVSPost2010PropOp53
 70
     1
102
RTVSPost2010Prop54
  1
strokes_ogs.tif
102
RTVSPost2010PropOp54
 70
     1
102
RTVSPost2010Prop55
280
     0
102
RTVSPost2010PropOp55
 70
     1
102
RTVSPost2010Prop56
140
1.0
102
RTVSPost2010PropOp56
 70
     1
102
RTVSPost2010Prop57
140
1.0
102
RTVSPost2010PropOp57
 70
     1
  0
XRECORD
  5
273
102
{ACAD_REACTORS
330
272
102
}
330
272
100
AcDbXrecord
280
     1
102
RTVSPropertyOp0
 70
     1
102
RTVSPropertyOp1
 70
     1
102
RTVSPropertyOp2
 70
     1
102
RTVSPropertyOp3
 70
     1
102
RTVSPropertyOp4
 70
     1
102
RTVSPropertyOp5
 70
     1
102
RTVSPropertyOp6
 70
     1
102
RTVSPropertyOp7
 70
     1
102
RTVSPropertyOp8
 70
     1
102
RTVSPropertyOp9
 70
     1
102
RTVSPropertyOp10
 70
     1
102
RTVSPropertyOp11
 70
     1
102
RTVSPropertyOp12
 70
     1
102
RTVSPropertyOp13
 70
     1
102
RTVSPropertyOp14
 70
     1
102
RTVSPropertyOp15
 70
     1
102
RTVSPropertyOp16
 70
     1
102
RTVSPropertyOp17
 70
     1
102
RTVSPropertyOp18
 70
     1
102
RTVSPropertyOp19
 70
     1
102
RTVSPropertyOp20
 70
     1
102
RTVSPropertyOp21
 70
     1
102
RTVSPropertyOp22
 70
     1
102
RTVSPropertyOp23
 70
     1
102
RTVSPropertyOp24
 70
     1
102
RTVSPropertyOp25
 70
     1
102
RTVSPropertyOp26
 70
     1
102
RTVSPropertyOp27
 70
     1
102
RTVSPropertyOp28
 70
     1
102
RTVSPropertyOp29
 70
     1
102
RTVSPropertyOp30
 70
     1
102
RTVSPropertyOp31
 70
     1
102
RTVSPropertyOp32
 70
     1
102
RTVSPropertyOp33
 70
     1
102
RTVSPropertyOp34
 70
     1
102
RTVSPropertyOp35
 70
     1
102
RTVSPropertyOp36
 70
     1
102
RTVSPropertyOp37
 70
     1
102
RTVSPropertyOp38
 70
     1
102
RTVSPropertyOp39
 70
     1
102
RTVSPropertyOp40
 70
     1
102
RTVSPropertyOp41
 70
     1
102
RTVSPropertyOp42
 70
     1
102
RTVSPropertyOp43
 70
     1
102
RTVSPropertyOp44
 70
     1
102
RTVSPropertyOp45
 70
     1
102
RTVSPropertyOp46
 70
     1
102
RTVSPropertyOp47
 70
     1
102
RTVSPropertyOp48
 70
     1
102
RTVSPropertyOp49
 70
     1
102
RTVSPropertyOp50
 70
     1
102
RTVSPropertyOp51
 70
     0
102
RTVSPropertyOp52
 70
     0
102
RTVSPropertyOp53
 70
     1
102
RTVSPropertyOp54
 70
     1
102
RTVSPropertyOp55
 70
     1
102
RTVSPropertyOp56
 70
     1
102
RTVSPropertyOp57
 70
     1
102
RTVSPost2010Prop28
280
     0
102
RTVSPost2010PropOp28
 70
     1
102
RTVSPost2010Prop29
280
     1
102
RTVSPost2010PropOp29
 70
     1
102
RTVSPost2010Prop30
280
     1
102
RTVSPost2010PropOp30
 70
     1
102
RTVSPost2010Prop31
280
     0
102
RTVSPost2010PropOp31
 70
     1
102
RTVSPost2010Prop32
280
     0
102
RTVSPost2010PropOp32
 70
     1
102
RTVSPost2010Prop33
280
     0
102
RTVSPost2010PropOp33
 70
     1
102
RTVSPost2010Prop34
280
     0
102
RTVSPost2010PropOp34
 70
     1
102
RTVSPost2010Prop35
280
     0
102
RTVSPost2010PropOp35
 70
     1
102
RTVSPost2010Prop36
280
     0
102
RTVSPost2010PropOp36
 70
     1
102
RTVSPost2010Prop37
 90
       50
102
RTVSPost2010PropOp37
 70
     1
102
RTVSPost2010Prop38
140
0.0
102
RTVSPost2010PropOp38
 70
     1
102
RTVSPost2010Prop39
140
1.0
102
RTVSPost2010PropOp39
 70
     1
102
RTVSPost2010Prop40
 90
        0
102
RTVSPost2010PropOp40
 70
     1
102
RTVSPost2010Prop41ColorIndex
 90
       18
102
RTVSPost2010Prop41ColorRGB
 90
        0
102
RTVSPost2010PropOp41
 70
     1
102
RTVSPost2010Prop42
 90
       50
102
RTVSPost2010PropOp42
 70
     1
102
RTVSPost2010Prop43
 90
        3
102
RTVSPost2010PropOp43
 70
     1
102
RTVSPost2010Prop44ColorIndex
 90
        5
102
RTVSPost2010Prop44ColorRGB
 90
      255
102
RTVSPost2010PropOp44
 70
     1
102
RTVSPost2010Prop45
280
     0
102
RTVSPost2010PropOp45
 70
     1
102
RTVSPost2010Prop46
 90
       50
102
RTVSPost2010PropOp46
 70
     1
102
RTVSPost2010Prop47
 90
       50
102
RTVSPost2010PropOp47
 70
     1
102
RTVSPost2010Prop48
 90
       50
102
RTVSPost2010PropOp48
 70
     1
102
RTVSPost2010Prop49
280
     0
102
RTVSPost2010PropOp49
 70
     1
102
RTVSPost2010Prop50
 90
       50
102
RTVSPost2010PropOp50
 70
     1
102
RTVSPost2010Prop51ColorIndex
 90
      256
102
RTVSPost2010Prop51ColorRGB
 90
-16777216
102
RTVSPost2010PropOp51
 70
     0
102
RTVSPost2010Prop52
140
1.0
102
RTVSPost2010PropOp52
 70
     0
102
RTVSPost2010Prop53
 90
        2
102
RTVSPost2010PropOp53
 70
     1
102
RTVSPost2010Prop54
  1
strokes_ogs.tif
102
RTVSPost2010PropOp54
 70
     1
102
RTVSPost2010Prop55
280
     0
102
RTVSPost2010PropOp55
 70
     1
102
RTVSPost2010Prop56
140
1.0
102
RTVSPost2010PropOp56
 70
     1
102
RTVSPost2010Prop57
140
1.0
102
RTVSPost2010PropOp57
 70
     1
  0
XRECORD
  5
27B
102
{ACAD_REACTORS
330
27A
102
}
330
27A
100
AcDbXrecord
280
     1
102
RTVSPropertyOp0
 70
     1
102
RTVSPropertyOp1
 70
     1
102
RTVSPropertyOp2
 70
     1
102
RTVSPropertyOp3
 70
     1
102
RTVSPropertyOp4
 70
     1
102
RTVSPropertyOp5
 70
     1
102
RTVSPropertyOp6
 70
     1
102
RTVSPropertyOp7
 70
     1
102
RTVSPropertyOp8
 70
     1
102
RTVSPropertyOp9
 70
     1
102
RTVSPropertyOp10
 70
     1
102
RTVSPropertyOp11
 70
     1
102
RTVSPropertyOp12
 70
     1
102
RTVSPropertyOp13
 70
     1
102
RTVSPropertyOp14
 70
     1
102
RTVSPropertyOp15
 70
     1
102
RTVSPropertyOp16
 70
     1
102
RTVSPropertyOp17
 70
     1
102
RTVSPropertyOp18
 70
     1
102
RTVSPropertyOp19
 70
     1
102
RTVSPropertyOp20
 70
     1
102
RTVSPropertyOp21
 70
     1
102
RTVSPropertyOp22
 70
     1
102
RTVSPropertyOp23
 70
     1
102
RTVSPropertyOp24
 70
     1
102
RTVSPropertyOp25
 70
     1
102
RTVSPropertyOp26
 70
     1
102
RTVSPropertyOp27
 70
     1
102
RTVSPropertyOp28
 70
     1
102
RTVSPropertyOp29
 70
     1
102
RTVSPropertyOp30
 70
     1
102
RTVSPropertyOp31
 70
     1
102
RTVSPropertyOp32
 70
     1
102
RTVSPropertyOp33
 70
     1
102
RTVSPropertyOp34
 70
     1
102
RTVSPropertyOp35
 70
     1
102
RTVSPropertyOp36
 70
     1
102
RTVSPropertyOp37
 70
     1
102
RTVSPropertyOp38
 70
     1
102
RTVSPropertyOp39
 70
     1
102
RTVSPropertyOp40
 70
     1
102
RTVSPropertyOp41
 70
     1
102
RTVSPropertyOp42
 70
     1
102
RTVSPropertyOp43
 70
     1
102
RTVSPropertyOp44
 70
     1
102
RTVSPropertyOp45
 70
     1
102
RTVSPropertyOp46
 70
     1
102
RTVSPropertyOp47
 70
     1
102
RTVSPropertyOp48
 70
     1
102
RTVSPropertyOp49
 70
     1
102
RTVSPropertyOp50
 70
     1
102
RTVSPropertyOp51
 70
     0
102
RTVSPropertyOp52
 70
     0
102
RTVSPropertyOp53
 70
     1
102
RTVSPropertyOp54
 70
     1
102
RTVSPropertyOp55
 70
     1
102
RTVSPropertyOp56
 70
     1
102
RTVSPropertyOp57
 70
     1
102
RTVSPost2010Prop28
280
     0
102
RTVSPost2010PropOp28
 70
     1
102
RTVSPost2010Prop29
280
     1
102
RTVSPost2010PropOp29
 70
     1
102
RTVSPost2010Prop30
280
     1
102
RTVSPost2010PropOp30
 70
     1
102
RTVSPost2010Prop31
280
     0
102
RTVSPost2010PropOp31
 70
     1
102
RTVSPost2010Prop32
280
     0
102
RTVSPost2010PropOp32
 70
     1
102
RTVSPost2010Prop33
280
     0
102
RTVSPost2010PropOp33
 70
     1
102
RTVSPost2010Prop34
280
     0
102
RTVSPost2010PropOp34
 70
     1
102
RTVSPost2010Prop35
280
     0
102
RTVSPost2010PropOp35
 70
     1
102
RTVSPost2010Prop36
280
     0
102
RTVSPost2010PropOp36
 70
     1
102
RTVSPost2010Prop37
 90
       50
102
RTVSPost2010PropOp37
 70
     1
102
RTVSPost2010Prop38
140
0.0
102
RTVSPost2010PropOp38
 70
     1
102
RTVSPost2010Prop39
140
1.0
102
RTVSPost2010PropOp39
 70
     1
102
RTVSPost2010Prop40
 90
        0
102
RTVSPost2010PropOp40
 70
     1
102
RTVSPost2010Prop41ColorIndex
 90
       18
102
RTVSPost2010Prop41ColorRGB
 90
        0
102
RTVSPost2010PropOp41
 70
     1
102
RTVSPost2010Prop42
 90
       50
102
RTVSPost2010PropOp42
 70
     1
102
RTVSPost2010Prop43
 90
        3
102
RTVSPost2010PropOp43
 70
     1
102
RTVSPost2010Prop44ColorIndex
 90
        5
102
RTVSPost2010Prop44ColorRGB
 90
      255
102
RTVSPost2010PropOp44
 70
     1
102
RTVSPost2010Prop45
280
     0
102
RTVSPost2010PropOp45
 70
     1
102
RTVSPost2010Prop46
 90
       50
102
RTVSPost2010PropOp46
 70
     1
102
RTVSPost2010Prop47
 90
       50
102
RTVSPost2010PropOp47
 70
     1
102
RTVSPost2010Prop48
 90
       50
102
RTVSPost2010PropOp48
 70
     1
102
RTVSPost2010Prop49
280
     0
102
RTVSPost2010PropOp49
 70
     1
102
RTVSPost2010Prop50
 90
       50
102
RTVSPost2010PropOp50
 70
     1
102
RTVSPost2010Prop51ColorIndex
 90
      256
102
RTVSPost2010Prop51ColorRGB
 90
-16777216
102
RTVSPost2010PropOp51
 70
     0
102
RTVSPost2010Prop52
140
1.0
102
RTVSPost2010PropOp52
 70
     0
102
RTVSPost2010Prop53
 90
        2
102
RTVSPost2010PropOp53
 70
     1
102
RTVSPost2010Prop54
  1
strokes_ogs.tif
102
RTVSPost2010PropOp54
 70
     1
102
RTVSPost2010Prop55
280
     0
102
RTVSPost2010PropOp55
 70
     1
102
RTVSPost2010Prop56
140
1.0
102
RTVSPost2010PropOp56
 70
     1
102
RTVSPost2010Prop57
140
1.0
102
RTVSPost2010PropOp57
 70
     1
  0
XRECORD
  5
26F
102
{ACAD_REACTORS
330
26E
102
}
330
26E
100
AcDbXrecord
280
     1
102
RTVSPropertyOp0
 70
     1
102
RTVSPropertyOp1
 70
     1
102
RTVSPropertyOp2
 70
     1
102
RTVSPropertyOp3
 70
     1
102
RTVSPropertyOp4
 70
     1
102
RTVSPropertyOp5
 70
     1
102
RTVSPropertyOp6
 70
     1
102
RTVSPropertyOp7
 70
     1
102
RTVSPropertyOp8
 70
     1
102
RTVSPropertyOp9
 70
     1
102
RTVSPropertyOp10
 70
     1
102
RTVSPropertyOp11
 70
     1
102
RTVSPropertyOp12
 70
     1
102
RTVSPropertyOp13
 70
     1
102
RTVSPropertyOp14
 70
     1
102
RTVSPropertyOp15
 70
     1
102
RTVSPropertyOp16
 70
     1
102
RTVSPropertyOp17
 70
     1
102
RTVSPropertyOp18
 70
     1
102
RTVSPropertyOp19
 70
     1
102
RTVSPropertyOp20
 70
     1
102
RTVSPropertyOp21
 70
     1
102
RTVSPropertyOp22
 70
     1
102
RTVSPropertyOp23
 70
     1
102
RTVSPropertyOp24
 70
     1
102
RTVSPropertyOp25
 70
     1
102
RTVSPropertyOp26
 70
     1
102
RTVSPropertyOp27
 70
     1
102
RTVSPropertyOp28
 70
     1
102
RTVSPropertyOp29
 70
     1
102
RTVSPropertyOp30
 70
     1
102
RTVSPropertyOp31
 70
     1
102
RTVSPropertyOp32
 70
     1
102
RTVSPropertyOp33
 70
     1
102
RTVSPropertyOp34
 70
     1
102
RTVSPropertyOp35
 70
     1
102
RTVSPropertyOp36
 70
     1
102
RTVSPropertyOp37
 70
     1
102
RTVSPropertyOp38
 70
     1
102
RTVSPropertyOp39
 70
     1
102
RTVSPropertyOp40
 70
     1
102
RTVSPropertyOp41
 70
     1
102
RTVSPropertyOp42
 70
     1
102
RTVSPropertyOp43
 70
     1
102
RTVSPropertyOp44
 70
     1
102
RTVSPropertyOp45
 70
     1
102
RTVSPropertyOp46
 70
     1
102
RTVSPropertyOp47
 70
     1
102
RTVSPropertyOp48
 70
     1
102
RTVSPropertyOp49
 70
     1
102
RTVSPropertyOp50
 70
     1
102
RTVSPropertyOp51
 70
     0
102
RTVSPropertyOp52
 70
     0
102
RTVSPropertyOp53
 70
     1
102
RTVSPropertyOp54
 70
     1
102
RTVSPropertyOp55
 70
     1
102
RTVSPropertyOp56
 70
     1
102
RTVSPropertyOp57
 70
     1
102
RTVSPost2010Prop28
280
     0
102
RTVSPost2010PropOp28
 70
     1
102
RTVSPost2010Prop29
280
     1
102
RTVSPost2010PropOp29
 70
     1
102
RTVSPost2010Prop30
280
     1
102
RTVSPost2010PropOp30
 70
     1
102
RTVSPost2010Prop31
280
     0
102
RTVSPost2010PropOp31
 70
     1
102
RTVSPost2010Prop32
280
     0
102
RTVSPost2010PropOp32
 70
     1
102
RTVSPost2010Prop33
280
     0
102
RTVSPost2010PropOp33
 70
     1
102
RTVSPost2010Prop34
280
     0
102
RTVSPost2010PropOp34
 70
     1
102
RTVSPost2010Prop35
280
     0
102
RTVSPost2010PropOp35
 70
     1
102
RTVSPost2010Prop36
280
     0
102
RTVSPost2010PropOp36
 70
     1
102
RTVSPost2010Prop37
 90
       50
102
RTVSPost2010PropOp37
 70
     1
102
RTVSPost2010Prop38
140
0.0
102
RTVSPost2010PropOp38
 70
     1
102
RTVSPost2010Prop39
140
1.0
102
RTVSPost2010PropOp39
 70
     1
102
RTVSPost2010Prop40
 90
        0
102
RTVSPost2010PropOp40
 70
     1
102
RTVSPost2010Prop41ColorIndex
 90
       18
102
RTVSPost2010Prop41ColorRGB
 90
        0
102
RTVSPost2010PropOp41
 70
     1
102
RTVSPost2010Prop42
 90
       50
102
RTVSPost2010PropOp42
 70
     1
102
RTVSPost2010Prop43
 90
        3
102
RTVSPost2010PropOp43
 70
     1
102
RTVSPost2010Prop44ColorIndex
 90
        5
102
RTVSPost2010Prop44ColorRGB
 90
      255
102
RTVSPost2010PropOp44
 70
     1
102
RTVSPost2010Prop45
280
     0
102
RTVSPost2010PropOp45
 70
     1
102
RTVSPost2010Prop46
 90
       50
102
RTVSPost2010PropOp46
 70
     1
102
RTVSPost2010Prop47
 90
       50
102
RTVSPost2010PropOp47
 70
     1
102
RTVSPost2010Prop48
 90
       50
102
RTVSPost2010PropOp48
 70
     1
102
RTVSPost2010Prop49
280
     0
102
RTVSPost2010PropOp49
 70
     1
102
RTVSPost2010Prop50
 90
       50
102
RTVSPost2010PropOp50
 70
     1
102
RTVSPost2010Prop51ColorIndex
 90
      256
102
RTVSPost2010Prop51ColorRGB
 90
-16777216
102
RTVSPost2010PropOp51
 70
     0
102
RTVSPost2010Prop52
140
1.0
102
RTVSPost2010PropOp52
 70
     0
102
RTVSPost2010Prop53
 90
        2
102
RTVSPost2010PropOp53
 70
     1
102
RTVSPost2010Prop54
  1
strokes_ogs.tif
102
RTVSPost2010PropOp54
 70
     1
102
RTVSPost2010Prop55
280
     0
102
RTVSPost2010PropOp55
 70
     1
102
RTVSPost2010Prop56
140
1.0
102
RTVSPost2010PropOp56
 70
     1
102
RTVSPost2010Prop57
140
1.0
102
RTVSPost2010PropOp57
 70
     1
  0
XRECORD
  5
271
102
{ACAD_REACTORS
330
270
102
}
330
270
100
AcDbXrecord
280
     1
102
RTVSPropertyOp0
 70
     1
102
RTVSPropertyOp1
 70
     1
102
RTVSPropertyOp2
 70
     1
102
RTVSPropertyOp3
 70
     1
102
RTVSPropertyOp4
 70
     1
102
RTVSPropertyOp5
 70
     1
102
RTVSPropertyOp6
 70
     1
102
RTVSPropertyOp7
 70
     1
102
RTVSPropertyOp8
 70
     1
102
RTVSPropertyOp9
 70
     1
102
RTVSPropertyOp10
 70
     1
102
RTVSPropertyOp11
 70
     1
102
RTVSPropertyOp12
 70
     1
102
RTVSPropertyOp13
 70
     1
102
RTVSPropertyOp14
 70
     1
102
RTVSPropertyOp15
 70
     1
102
RTVSPropertyOp16
 70
     1
102
RTVSPropertyOp17
 70
     1
102
RTVSPropertyOp18
 70
     1
102
RTVSPropertyOp19
 70
     1
102
RTVSPropertyOp20
 70
     1
102
RTVSPropertyOp21
 70
     1
102
RTVSPropertyOp22
 70
     1
102
RTVSPropertyOp23
 70
     1
102
RTVSPropertyOp24
 70
     1
102
RTVSPropertyOp25
 70
     1
102
RTVSPropertyOp26
 70
     1
102
RTVSPropertyOp27
 70
     1
102
RTVSPropertyOp28
 70
     1
102
RTVSPropertyOp29
 70
     1
102
RTVSPropertyOp30
 70
     1
102
RTVSPropertyOp31
 70
     1
102
RTVSPropertyOp32
 70
     1
102
RTVSPropertyOp33
 70
     1
102
RTVSPropertyOp34
 70
     1
102
RTVSPropertyOp35
 70
     1
102
RTVSPropertyOp36
 70
     1
102
RTVSPropertyOp37
 70
     1
102
RTVSPropertyOp38
 70
     1
102
RTVSPropertyOp39
 70
     1
102
RTVSPropertyOp40
 70
     1
102
RTVSPropertyOp41
 70
     1
102
RTVSPropertyOp42
 70
     1
102
RTVSPropertyOp43
 70
     1
102
RTVSPropertyOp44
 70
     1
102
RTVSPropertyOp45
 70
     1
102
RTVSPropertyOp46
 70
     1
102
RTVSPropertyOp47
 70
     1
102
RTVSPropertyOp48
 70
     1
102
RTVSPropertyOp49
 70
     1
102
RTVSPropertyOp50
 70
     1
102
RTVSPropertyOp51
 70
     0
102
RTVSPropertyOp52
 70
     0
102
RTVSPropertyOp53
 70
     1
102
RTVSPropertyOp54
 70
     1
102
RTVSPropertyOp55
 70
     1
102
RTVSPropertyOp56
 70
     1
102
RTVSPropertyOp57
 70
     1
102
RTVSPost2010Prop28
280
     0
102
RTVSPost2010PropOp28
 70
     1
102
RTVSPost2010Prop29
280
     1
102
RTVSPost2010PropOp29
 70
     1
102
RTVSPost2010Prop30
280
     1
102
RTVSPost2010PropOp30
 70
     1
102
RTVSPost2010Prop31
280
     0
102
RTVSPost2010PropOp31
 70
     1
102
RTVSPost2010Prop32
280
     0
102
RTVSPost2010PropOp32
 70
     1
102
RTVSPost2010Prop33
280
     0
102
RTVSPost2010PropOp33
 70
     1
102
RTVSPost2010Prop34
280
     0
102
RTVSPost2010PropOp34
 70
     1
102
RTVSPost2010Prop35
280
     0
102
RTVSPost2010PropOp35
 70
     1
102
RTVSPost2010Prop36
280
     0
102
RTVSPost2010PropOp36
 70
     1
102
RTVSPost2010Prop37
 90
       50
102
RTVSPost2010PropOp37
 70
     1
102
RTVSPost2010Prop38
140
0.0
102
RTVSPost2010PropOp38
 70
     1
102
RTVSPost2010Prop39
140
1.0
102
RTVSPost2010PropOp39
 70
     1
102
RTVSPost2010Prop40
 90
        0
102
RTVSPost2010PropOp40
 70
     1
102
RTVSPost2010Prop41ColorIndex
 90
       18
102
RTVSPost2010Prop41ColorRGB
 90
        0
102
RTVSPost2010PropOp41
 70
     1
102
RTVSPost2010Prop42
 90
       50
102
RTVSPost2010PropOp42
 70
     1
102
RTVSPost2010Prop43
 90
        3
102
RTVSPost2010PropOp43
 70
     1
102
RTVSPost2010Prop44ColorIndex
 90
        5
102
RTVSPost2010Prop44ColorRGB
 90
      255
102
RTVSPost2010PropOp44
 70
     1
102
RTVSPost2010Prop45
280
     0
102
RTVSPost2010PropOp45
 70
     1
102
RTVSPost2010Prop46
 90
       50
102
RTVSPost2010PropOp46
 70
     1
102
RTVSPost2010Prop47
 90
       50
102
RTVSPost2010PropOp47
 70
     1
102
RTVSPost2010Prop48
 90
       50
102
RTVSPost2010PropOp48
 70
     1
102
RTVSPost2010Prop49
280
     0
102
RTVSPost2010PropOp49
 70
     1
102
RTVSPost2010Prop50
 90
       50
102
RTVSPost2010PropOp50
 70
     1
102
RTVSPost2010Prop51ColorIndex
 90
      256
102
RTVSPost2010Prop51ColorRGB
 90
-16777216
102
RTVSPost2010PropOp51
 70
     0
102
RTVSPost2010Prop52
140
1.0
102
RTVSPost2010PropOp52
 70
     0
102
RTVSPost2010Prop53
 90
        2
102
RTVSPost2010PropOp53
 70
     1
102
RTVSPost2010Prop54
  1
strokes_ogs.tif
102
RTVSPost2010PropOp54
 70
     1
102
RTVSPost2010Prop55
280
     0
102
RTVSPost2010PropOp55
 70
     1
102
RTVSPost2010Prop56
140
1.0
102
RTVSPost2010PropOp56
 70
     1
102
RTVSPost2010Prop57
140
1.0
102
RTVSPost2010PropOp57
 70
     1
  0
XRECORD
  5
281
102
{ACAD_REACTORS
330
280
102
}
330
280
100
AcDbXrecord
280
     1
102
RTVSPropertyOp0
 70
     0
102
RTVSPropertyOp1
 70
     0
102
RTVSPropertyOp2
 70
     0
102
RTVSPropertyOp3
 70
     0
102
RTVSPropertyOp4
 70
     0
102
RTVSPropertyOp5
 70
     0
102
RTVSPropertyOp6
 70
     0
102
RTVSPropertyOp7
 70
     0
102
RTVSPropertyOp8
 70
     0
102
RTVSPropertyOp9
 70
     0
102
RTVSPropertyOp10
 70
     0
102
RTVSPropertyOp11
 70
     0
102
RTVSPropertyOp12
 70
     0
102
RTVSPropertyOp13
 70
     0
102
RTVSPropertyOp14
 70
     2
102
RTVSPropertyOp15
 70
     0
102
RTVSPropertyOp16
 70
     0
102
RTVSPropertyOp17
 70
     0
102
RTVSPropertyOp18
 70
     0
102
RTVSPropertyOp19
 70
     0
102
RTVSPropertyOp20
 70
     0
102
RTVSPropertyOp21
 70
     0
102
RTVSPropertyOp22
 70
     0
102
RTVSPropertyOp23
 70
     0
102
RTVSPropertyOp24
 70
     0
102
RTVSPropertyOp25
 70
     0
102
RTVSPropertyOp26
 70
     0
102
RTVSPropertyOp27
 70
     0
102
RTVSPropertyOp28
 70
     0
102
RTVSPropertyOp29
 70
     0
102
RTVSPropertyOp30
 70
     0
102
RTVSPropertyOp31
 70
     0
102
RTVSPropertyOp32
 70
     0
102
RTVSPropertyOp33
 70
     0
102
RTVSPropertyOp34
 70
     0
102
RTVSPropertyOp35
 70
     0
102
RTVSPropertyOp36
 70
     0
102
RTVSPropertyOp37
 70
     0
102
RTVSPropertyOp38
 70
     0
102
RTVSPropertyOp39
 70
     0
102
RTVSPropertyOp40
 70
     0
102
RTVSPropertyOp41
 70
     0
102
RTVSPropertyOp42
 70
     0
102
RTVSPropertyOp43
 70
     0
102
RTVSPropertyOp44
 70
     0
102
RTVSPropertyOp45
 70
     0
102
RTVSPropertyOp46
 70
     0
102
RTVSPropertyOp47
 70
     0
102
RTVSPropertyOp48
 70
     0
102
RTVSPropertyOp49
 70
     0
102
RTVSPropertyOp50
 70
     0
102
RTVSPropertyOp51
 70
     0
102
RTVSPropertyOp52
 70
     0
102
RTVSPropertyOp53
 70
     0
102
RTVSPropertyOp54
 70
     0
102
RTVSPropertyOp55
 70
     0
102
RTVSPropertyOp56
 70
     0
102
RTVSPropertyOp57
 70
     0
102
RTVSPost2010Prop28
280
     0
102
RTVSPost2010PropOp28
 70
     0
102
RTVSPost2010Prop29
280
     1
102
RTVSPost2010PropOp29
 70
     0
102
RTVSPost2010Prop30
280
     1
102
RTVSPost2010PropOp30
 70
     0
102
RTVSPost2010Prop31
280
     0
102
RTVSPost2010PropOp31
 70
     0
102
RTVSPost2010Prop32
280
     0
102
RTVSPost2010PropOp32
 70
     0
102
RTVSPost2010Prop33
280
     0
102
RTVSPost2010PropOp33
 70
     0
102
RTVSPost2010Prop34
280
     0
102
RTVSPost2010PropOp34
 70
     0
102
RTVSPost2010Prop35
280
     0
102
RTVSPost2010PropOp35
 70
     0
102
RTVSPost2010Prop36
280
     0
102
RTVSPost2010PropOp36
 70
     0
102
RTVSPost2010Prop37
 90
       50
102
RTVSPost2010PropOp37
 70
     0
102
RTVSPost2010Prop38
140
0.0
102
RTVSPost2010PropOp38
 70
     0
102
RTVSPost2010Prop39
140
1.0
102
RTVSPost2010PropOp39
 70
     0
102
RTVSPost2010Prop40
 90
        0
102
RTVSPost2010PropOp40
 70
     0
102
RTVSPost2010Prop41ColorIndex
 90
       18
102
RTVSPost2010Prop41ColorRGB
 90
        0
102
RTVSPost2010PropOp41
 70
     0
102
RTVSPost2010Prop42
 90
       50
102
RTVSPost2010PropOp42
 70
     0
102
RTVSPost2010Prop43
 90
        3
102
RTVSPost2010PropOp43
 70
     0
102
RTVSPost2010Prop44ColorIndex
 90
        5
102
RTVSPost2010Prop44ColorRGB
 90
      255
102
RTVSPost2010PropOp44
 70
     0
102
RTVSPost2010Prop45
280
     0
102
RTVSPost2010PropOp45
 70
     0
102
RTVSPost2010Prop46
 90
       50
102
RTVSPost2010PropOp46
 70
     0
102
RTVSPost2010Prop47
 90
       50
102
RTVSPost2010PropOp47
 70
     0
102
RTVSPost2010Prop48
 90
       50
102
RTVSPost2010PropOp48
 70
     0
102
RTVSPost2010Prop49
280
     0
102
RTVSPost2010PropOp49
 70
     0
102
RTVSPost2010Prop50
 90
       50
102
RTVSPost2010PropOp50
 70
     0
102
RTVSPost2010Prop51ColorIndex
 90
      256
102
RTVSPost2010Prop51ColorRGB
 90
-16777216
102
RTVSPost2010PropOp51
 70
     0
102
RTVSPost2010Prop52
140
1.0
102
RTVSPost2010PropOp52
 70
     0
102
RTVSPost2010Prop53
 90
        2
102
RTVSPost2010PropOp53
 70
     0
102
RTVSPost2010Prop54
  1
strokes_ogs.tif
102
RTVSPost2010PropOp54
 70
     0
102
RTVSPost2010Prop55
280
     0
102
RTVSPost2010PropOp55
 70
     0
102
RTVSPost2010Prop56
140
1.0
102
RTVSPost2010PropOp56
 70
     0
102
RTVSPost2010Prop57
140
1.0
102
RTVSPost2010PropOp57
 70
     0
  0
XRECORD
  5
279
102
{ACAD_REACTORS
330
278
102
}
330
278
100
AcDbXrecord
280
     1
102
RTVSPropertyOp0
 70
     1
102
RTVSPropertyOp1
 70
     1
102
RTVSPropertyOp2
 70
     1
102
RTVSPropertyOp3
 70
     1
102
RTVSPropertyOp4
 70
     1
102
RTVSPropertyOp5
 70
     1
102
RTVSPropertyOp6
 70
     1
102
RTVSPropertyOp7
 70
     1
102
RTVSPropertyOp8
 70
     1
102
RTVSPropertyOp9
 70
     1
102
RTVSPropertyOp10
 70
     1
102
RTVSPropertyOp11
 70
     1
102
RTVSPropertyOp12
 70
     1
102
RTVSPropertyOp13
 70
     1
102
RTVSPropertyOp14
 70
     1
102
RTVSPropertyOp15
 70
     1
102
RTVSPropertyOp16
 70
     1
102
RTVSPropertyOp17
 70
     1
102
RTVSPropertyOp18
 70
     1
102
RTVSPropertyOp19
 70
     1
102
RTVSPropertyOp20
 70
     1
102
RTVSPropertyOp21
 70
     1
102
RTVSPropertyOp22
 70
     1
102
RTVSPropertyOp23
 70
     1
102
RTVSPropertyOp24
 70
     1
102
RTVSPropertyOp25
 70
     1
102
RTVSPropertyOp26
 70
     1
102
RTVSPropertyOp27
 70
     1
102
RTVSPropertyOp28
 70
     1
102
RTVSPropertyOp29
 70
     1
102
RTVSPropertyOp30
 70
     1
102
RTVSPropertyOp31
 70
     1
102
RTVSPropertyOp32
 70
     1
102
RTVSPropertyOp33
 70
     1
102
RTVSPropertyOp34
 70
     1
102
RTVSPropertyOp35
 70
     1
102
RTVSPropertyOp36
 70
     1
102
RTVSPropertyOp37
 70
     1
102
RTVSPropertyOp38
 70
     1
102
RTVSPropertyOp39
 70
     1
102
RTVSPropertyOp40
 70
     1
102
RTVSPropertyOp41
 70
     1
102
RTVSPropertyOp42
 70
     1
102
RTVSPropertyOp43
 70
     1
102
RTVSPropertyOp44
 70
     1
102
RTVSPropertyOp45
 70
     1
102
RTVSPropertyOp46
 70
     1
102
RTVSPropertyOp47
 70
     1
102
RTVSPropertyOp48
 70
     1
102
RTVSPropertyOp49
 70
     1
102
RTVSPropertyOp50
 70
     1
102
RTVSPropertyOp51
 70
     0
102
RTVSPropertyOp52
 70
     0
102
RTVSPropertyOp53
 70
     1
102
RTVSPropertyOp54
 70
     1
102
RTVSPropertyOp55
 70
     1
102
RTVSPropertyOp56
 70
     1
102
RTVSPropertyOp57
 70
     1
102
RTVSPost2010Prop28
280
     0
102
RTVSPost2010PropOp28
 70
     1
102
RTVSPost2010Prop29
280
     1
102
RTVSPost2010PropOp29
 70
     1
102
RTVSPost2010Prop30
280
     1
102
RTVSPost2010PropOp30
 70
     1
102
RTVSPost2010Prop31
280
     0
102
RTVSPost2010PropOp31
 70
     1
102
RTVSPost2010Prop32
280
     0
102
RTVSPost2010PropOp32
 70
     1
102
RTVSPost2010Prop33
280
     0
102
RTVSPost2010PropOp33
 70
     1
102
RTVSPost2010Prop34
280
     0
102
RTVSPost2010PropOp34
 70
     1
102
RTVSPost2010Prop35
280
     0
102
RTVSPost2010PropOp35
 70
     1
102
RTVSPost2010Prop36
280
     0
102
RTVSPost2010PropOp36
 70
     1
102
RTVSPost2010Prop37
 90
       50
102
RTVSPost2010PropOp37
 70
     1
102
RTVSPost2010Prop38
140
0.0
102
RTVSPost2010PropOp38
 70
     1
102
RTVSPost2010Prop39
140
1.0
102
RTVSPost2010PropOp39
 70
     1
102
RTVSPost2010Prop40
 90
        0
102
RTVSPost2010PropOp40
 70
     1
102
RTVSPost2010Prop41ColorIndex
 90
       18
102
RTVSPost2010Prop41ColorRGB
 90
        0
102
RTVSPost2010PropOp41
 70
     1
102
RTVSPost2010Prop42
 90
       50
102
RTVSPost2010PropOp42
 70
     1
102
RTVSPost2010Prop43
 90
        3
102
RTVSPost2010PropOp43
 70
     1
102
RTVSPost2010Prop44ColorIndex
 90
        5
102
RTVSPost2010Prop44ColorRGB
 90
      255
102
RTVSPost2010PropOp44
 70
     1
102
RTVSPost2010Prop45
280
     0
102
RTVSPost2010PropOp45
 70
     1
102
RTVSPost2010Prop46
 90
       50
102
RTVSPost2010PropOp46
 70
     1
102
RTVSPost2010Prop47
 90
       50
102
RTVSPost2010PropOp47
 70
     1
102
RTVSPost2010Prop48
 90
       50
102
RTVSPost2010PropOp48
 70
     1
102
RTVSPost2010Prop49
280
     0
102
RTVSPost2010PropOp49
 70
     1
102
RTVSPost2010Prop50
 90
       50
102
RTVSPost2010PropOp50
 70
     1
102
RTVSPost2010Prop51ColorIndex
 90
      256
102
RTVSPost2010Prop51ColorRGB
 90
-16777216
102
RTVSPost2010PropOp51
 70
     0
102
RTVSPost2010Prop52
140
1.0
102
RTVSPost2010PropOp52
 70
     0
102
RTVSPost2010Prop53
 90
        2
102
RTVSPost2010PropOp53
 70
     1
102
RTVSPost2010Prop54
  1
strokes_ogs.tif
102
RTVSPost2010PropOp54
 70
     1
102
RTVSPost2010Prop55
280
     0
102
RTVSPost2010PropOp55
 70
     1
102
RTVSPost2010Prop56
140
1.0
102
RTVSPost2010PropOp56
 70
     1
102
RTVSPost2010Prop57
140
1.0
102
RTVSPost2010PropOp57
 70
     1
  0
XRECORD
  5
25D
102
{ACAD_REACTORS
330
25C
102
}
330
25C
100
AcDbXrecord
280
     1
102
RTVSPropertyOp0
 70
     1
102
RTVSPropertyOp1
 70
     1
102
RTVSPropertyOp2
 70
     1
102
RTVSPropertyOp3
 70
     1
102
RTVSPropertyOp4
 70
     1
102
RTVSPropertyOp5
 70
     1
102
RTVSPropertyOp6
 70
     1
102
RTVSPropertyOp7
 70
     1
102
RTVSPropertyOp8
 70
     1
102
RTVSPropertyOp9
 70
     1
102
RTVSPropertyOp10
 70
     1
102
RTVSPropertyOp11
 70
     1
102
RTVSPropertyOp12
 70
     1
102
RTVSPropertyOp13
 70
     1
102
RTVSPropertyOp14
 70
     1
102
RTVSPropertyOp15
 70
     1
102
RTVSPropertyOp16
 70
     1
102
RTVSPropertyOp17
 70
     1
102
RTVSPropertyOp18
 70
     1
102
RTVSPropertyOp19
 70
     1
102
RTVSPropertyOp20
 70
     1
102
RTVSPropertyOp21
 70
     1
102
RTVSPropertyOp22
 70
     1
102
RTVSPropertyOp23
 70
     1
102
RTVSPropertyOp24
 70
     1
102
RTVSPropertyOp25
 70
     1
102
RTVSPropertyOp26
 70
     1
102
RTVSPropertyOp27
 70
     1
102
RTVSPropertyOp28
 70
     1
102
RTVSPropertyOp29
 70
     1
102
RTVSPropertyOp30
 70
     1
102
RTVSPropertyOp31
 70
     1
102
RTVSPropertyOp32
 70
     1
102
RTVSPropertyOp33
 70
     1
102
RTVSPropertyOp34
 70
     1
102
RTVSPropertyOp35
 70
     1
102
RTVSPropertyOp36
 70
     1
102
RTVSPropertyOp37
 70
     1
102
RTVSPropertyOp38
 70
     1
102
RTVSPropertyOp39
 70
     1
102
RTVSPropertyOp40
 70
     1
102
RTVSPropertyOp41
 70
     1
102
RTVSPropertyOp42
 70
     1
102
RTVSPropertyOp43
 70
     1
102
RTVSPropertyOp44
 70
     1
102
RTVSPropertyOp45
 70
     1
102
RTVSPropertyOp46
 70
     1
102
RTVSPropertyOp47
 70
     1
102
RTVSPropertyOp48
 70
     1
102
RTVSPropertyOp49
 70
     1
102
RTVSPropertyOp50
 70
     1
102
RTVSPropertyOp51
 70
     0
102
RTVSPropertyOp52
 70
     0
102
RTVSPropertyOp53
 70
     1
102
RTVSPropertyOp54
 70
     1
102
RTVSPropertyOp55
 70
     1
102
RTVSPropertyOp56
 70
     1
102
RTVSPropertyOp57
 70
     1
102
RTVSPost2010Prop28
280
     0
102
RTVSPost2010PropOp28
 70
     1
102
RTVSPost2010Prop29
280
     1
102
RTVSPost2010PropOp29
 70
     1
102
RTVSPost2010Prop30
280
     1
102
RTVSPost2010PropOp30
 70
     1
102
RTVSPost2010Prop31
280
     0
102
RTVSPost2010PropOp31
 70
     1
102
RTVSPost2010Prop32
280
     0
102
RTVSPost2010PropOp32
 70
     1
102
RTVSPost2010Prop33
280
     0
102
RTVSPost2010PropOp33
 70
     1
102
RTVSPost2010Prop34
280
     0
102
RTVSPost2010PropOp34
 70
     1
102
RTVSPost2010Prop35
280
     0
102
RTVSPost2010PropOp35
 70
     1
102
RTVSPost2010Prop36
280
     0
102
RTVSPost2010PropOp36
 70
     1
102
RTVSPost2010Prop37
 90
       50
102
RTVSPost2010PropOp37
 70
     1
102
RTVSPost2010Prop38
140
0.0
102
RTVSPost2010PropOp38
 70
     1
102
RTVSPost2010Prop39
140
1.0
102
RTVSPost2010PropOp39
 70
     1
102
RTVSPost2010Prop40
 90
        0
102
RTVSPost2010PropOp40
 70
     1
102
RTVSPost2010Prop41ColorIndex
 90
       18
102
RTVSPost2010Prop41ColorRGB
 90
        0
102
RTVSPost2010PropOp41
 70
     1
102
RTVSPost2010Prop42
 90
       50
102
RTVSPost2010PropOp42
 70
     1
102
RTVSPost2010Prop43
 90
        3
102
RTVSPost2010PropOp43
 70
     1
102
RTVSPost2010Prop44ColorIndex
 90
        5
102
RTVSPost2010Prop44ColorRGB
 90
      255
102
RTVSPost2010PropOp44
 70
     1
102
RTVSPost2010Prop45
280
     0
102
RTVSPost2010PropOp45
 70
     1
102
RTVSPost2010Prop46
 90
       50
102
RTVSPost2010PropOp46
 70
     1
102
RTVSPost2010Prop47
 90
       50
102
RTVSPost2010PropOp47
 70
     1
102
RTVSPost2010Prop48
 90
       50
102
RTVSPost2010PropOp48
 70
     1
102
RTVSPost2010Prop49
280
     0
102
RTVSPost2010PropOp49
 70
     1
102
RTVSPost2010Prop50
 90
       50
102
RTVSPost2010PropOp50
 70
     1
102
RTVSPost2010Prop51ColorIndex
 90
      256
102
RTVSPost2010Prop51ColorRGB
 90
-16777216
102
RTVSPost2010PropOp51
 70
     0
102
RTVSPost2010Prop52
140
1.0
102
RTVSPost2010PropOp52
 70
     0
102
RTVSPost2010Prop53
 90
        2
102
RTVSPost2010PropOp53
 70
     1
102
RTVSPost2010Prop54
  1
strokes_ogs.tif
102
RTVSPost2010PropOp54
 70
     1
102
RTVSPost2010Prop55
280
     0
102
RTVSPost2010PropOp55
 70
     1
102
RTVSPost2010Prop56
140
1.0
102
RTVSPost2010PropOp56
 70
     1
102
RTVSPost2010Prop57
140
1.0
102
RTVSPost2010PropOp57
 70
     1
  0
XRECORD
  5
25F
102
{ACAD_REACTORS
330
25E
102
}
330
25E
100
AcDbXrecord
280
     1
102
RTVSPropertyOp0
 70
     1
102
RTVSPropertyOp1
 70
     1
102
RTVSPropertyOp2
 70
     1
102
RTVSPropertyOp3
 70
     1
102
RTVSPropertyOp4
 70
     1
102
RTVSPropertyOp5
 70
     1
102
RTVSPropertyOp6
 70
     1
102
RTVSPropertyOp7
 70
     1
102
RTVSPropertyOp8
 70
     1
102
RTVSPropertyOp9
 70
     1
102
RTVSPropertyOp10
 70
     1
102
RTVSPropertyOp11
 70
     1
102
RTVSPropertyOp12
 70
     1
102
RTVSPropertyOp13
 70
     1
102
RTVSPropertyOp14
 70
     1
102
RTVSPropertyOp15
 70
     1
102
RTVSPropertyOp16
 70
     1
102
RTVSPropertyOp17
 70
     1
102
RTVSPropertyOp18
 70
     1
102
RTVSPropertyOp19
 70
     1
102
RTVSPropertyOp20
 70
     1
102
RTVSPropertyOp21
 70
     1
102
RTVSPropertyOp22
 70
     1
102
RTVSPropertyOp23
 70
     1
102
RTVSPropertyOp24
 70
     1
102
RTVSPropertyOp25
 70
     1
102
RTVSPropertyOp26
 70
     1
102
RTVSPropertyOp27
 70
     1
102
RTVSPropertyOp28
 70
     1
102
RTVSPropertyOp29
 70
     1
102
RTVSPropertyOp30
 70
     1
102
RTVSPropertyOp31
 70
     1
102
RTVSPropertyOp32
 70
     1
102
RTVSPropertyOp33
 70
     1
102
RTVSPropertyOp34
 70
     1
102
RTVSPropertyOp35
 70
     1
102
RTVSPropertyOp36
 70
     1
102
RTVSPropertyOp37
 70
     1
102
RTVSPropertyOp38
 70
     1
102
RTVSPropertyOp39
 70
     1
102
RTVSPropertyOp40
 70
     1
102
RTVSPropertyOp41
 70
     1
102
RTVSPropertyOp42
 70
     1
102
RTVSPropertyOp43
 70
     1
102
RTVSPropertyOp44
 70
     1
102
RTVSPropertyOp45
 70
     1
102
RTVSPropertyOp46
 70
     1
102
RTVSPropertyOp47
 70
     1
102
RTVSPropertyOp48
 70
     1
102
RTVSPropertyOp49
 70
     1
102
RTVSPropertyOp50
 70
     1
102
RTVSPropertyOp51
 70
     0
102
RTVSPropertyOp52
 70
     0
102
RTVSPropertyOp53
 70
     1
102
RTVSPropertyOp54
 70
     1
102
RTVSPropertyOp55
 70
     1
102
RTVSPropertyOp56
 70
     1
102
RTVSPropertyOp57
 70
     1
102
RTVSPost2010Prop28
280
     0
102
RTVSPost2010PropOp28
 70
     1
102
RTVSPost2010Prop29
280
     1
102
RTVSPost2010PropOp29
 70
     1
102
RTVSPost2010Prop30
280
     1
102
RTVSPost2010PropOp30
 70
     1
102
RTVSPost2010Prop31
280
     0
102
RTVSPost2010PropOp31
 70
     1
102
RTVSPost2010Prop32
280
     0
102
RTVSPost2010PropOp32
 70
     1
102
RTVSPost2010Prop33
280
     0
102
RTVSPost2010PropOp33
 70
     1
102
RTVSPost2010Prop34
280
     0
102
RTVSPost2010PropOp34
 70
     1
102
RTVSPost2010Prop35
280
     0
102
RTVSPost2010PropOp35
 70
     1
102
RTVSPost2010Prop36
280
     0
102
RTVSPost2010PropOp36
 70
     1
102
RTVSPost2010Prop37
 90
       50
102
RTVSPost2010PropOp37
 70
     1
102
RTVSPost2010Prop38
140
0.0
102
RTVSPost2010PropOp38
 70
     1
102
RTVSPost2010Prop39
140
1.0
102
RTVSPost2010PropOp39
 70
     1
102
RTVSPost2010Prop40
 90
        0
102
RTVSPost2010PropOp40
 70
     1
102
RTVSPost2010Prop41ColorIndex
 90
       18
102
RTVSPost2010Prop41ColorRGB
 90
        0
102
RTVSPost2010PropOp41
 70
     1
102
RTVSPost2010Prop42
 90
       50
102
RTVSPost2010PropOp42
 70
     1
102
RTVSPost2010Prop43
 90
        3
102
RTVSPost2010PropOp43
 70
     1
102
RTVSPost2010Prop44ColorIndex
 90
        5
102
RTVSPost2010Prop44ColorRGB
 90
      255
102
RTVSPost2010PropOp44
 70
     1
102
RTVSPost2010Prop45
280
     0
102
RTVSPost2010PropOp45
 70
     1
102
RTVSPost2010Prop46
 90
       50
102
RTVSPost2010PropOp46
 70
     1
102
RTVSPost2010Prop47
 90
       50
102
RTVSPost2010PropOp47
 70
     1
102
RTVSPost2010Prop48
 90
       50
102
RTVSPost2010PropOp48
 70
     1
102
RTVSPost2010Prop49
280
     0
102
RTVSPost2010PropOp49
 70
     1
102
RTVSPost2010Prop50
 90
       50
102
RTVSPost2010PropOp50
 70
     1
102
RTVSPost2010Prop51ColorIndex
 90
      256
102
RTVSPost2010Prop51ColorRGB
 90
-16777216
102
RTVSPost2010PropOp51
 70
     0
102
RTVSPost2010Prop52
140
1.0
102
RTVSPost2010PropOp52
 70
     0
102
RTVSPost2010Prop53
 90
        2
102
RTVSPost2010PropOp53
 70
     1
102
RTVSPost2010Prop54
  1
strokes_ogs.tif
102
RTVSPost2010PropOp54
 70
     1
102
RTVSPost2010Prop55
280
     0
102
RTVSPost2010PropOp55
 70
     1
102
RTVSPost2010Prop56
140
1.0
102
RTVSPost2010PropOp56
 70
     1
102
RTVSPost2010Prop57
140
1.0
102
RTVSPost2010PropOp57
 70
     1
  0
XRECORD
  5
261
102
{ACAD_REACTORS
330
260
102
}
330
260
100
AcDbXrecord
280
     1
102
RTVSPropertyOp0
 70
     1
102
RTVSPropertyOp1
 70
     1
102
RTVSPropertyOp2
 70
     1
102
RTVSPropertyOp3
 70
     1
102
RTVSPropertyOp4
 70
     1
102
RTVSPropertyOp5
 70
     1
102
RTVSPropertyOp6
 70
     1
102
RTVSPropertyOp7
 70
     1
102
RTVSPropertyOp8
 70
     1
102
RTVSPropertyOp9
 70
     1
102
RTVSPropertyOp10
 70
     1
102
RTVSPropertyOp11
 70
     1
102
RTVSPropertyOp12
 70
     1
102
RTVSPropertyOp13
 70
     1
102
RTVSPropertyOp14
 70
     1
102
RTVSPropertyOp15
 70
     1
102
RTVSPropertyOp16
 70
     1
102
RTVSPropertyOp17
 70
     1
102
RTVSPropertyOp18
 70
     1
102
RTVSPropertyOp19
 70
     1
102
RTVSPropertyOp20
 70
     1
102
RTVSPropertyOp21
 70
     1
102
RTVSPropertyOp22
 70
     1
102
RTVSPropertyOp23
 70
     1
102
RTVSPropertyOp24
 70
     1
102
RTVSPropertyOp25
 70
     1
102
RTVSPropertyOp26
 70
     1
102
RTVSPropertyOp27
 70
     1
102
RTVSPropertyOp28
 70
     1
102
RTVSPropertyOp29
 70
     1
102
RTVSPropertyOp30
 70
     1
102
RTVSPropertyOp31
 70
     1
102
RTVSPropertyOp32
 70
     1
102
RTVSPropertyOp33
 70
     1
102
RTVSPropertyOp34
 70
     1
102
RTVSPropertyOp35
 70
     1
102
RTVSPropertyOp36
 70
     1
102
RTVSPropertyOp37
 70
     1
102
RTVSPropertyOp38
 70
     1
102
RTVSPropertyOp39
 70
     1
102
RTVSPropertyOp40
 70
     1
102
RTVSPropertyOp41
 70
     1
102
RTVSPropertyOp42
 70
     1
102
RTVSPropertyOp43
 70
     1
102
RTVSPropertyOp44
 70
     1
102
RTVSPropertyOp45
 70
     1
102
RTVSPropertyOp46
 70
     1
102
RTVSPropertyOp47
 70
     1
102
RTVSPropertyOp48
 70
     1
102
RTVSPropertyOp49
 70
     1
102
RTVSPropertyOp50
 70
     1
102
RTVSPropertyOp51
 70
     0
102
RTVSPropertyOp52
 70
     0
102
RTVSPropertyOp53
 70
     1
102
RTVSPropertyOp54
 70
     1
102
RTVSPropertyOp55
 70
     1
102
RTVSPropertyOp56
 70
     1
102
RTVSPropertyOp57
 70
     1
102
RTVSPost2010Prop28
280
     0
102
RTVSPost2010PropOp28
 70
     1
102
RTVSPost2010Prop29
280
     1
102
RTVSPost2010PropOp29
 70
     1
102
RTVSPost2010Prop30
280
     1
102
RTVSPost2010PropOp30
 70
     1
102
RTVSPost2010Prop31
280
     0
102
RTVSPost2010PropOp31
 70
     1
102
RTVSPost2010Prop32
280
     0
102
RTVSPost2010PropOp32
 70
     1
102
RTVSPost2010Prop33
280
     0
102
RTVSPost2010PropOp33
 70
     1
102
RTVSPost2010Prop34
280
     0
102
RTVSPost2010PropOp34
 70
     1
102
RTVSPost2010Prop35
280
     0
102
RTVSPost2010PropOp35
 70
     1
102
RTVSPost2010Prop36
280
     0
102
RTVSPost2010PropOp36
 70
     1
102
RTVSPost2010Prop37
 90
       50
102
RTVSPost2010PropOp37
 70
     1
102
RTVSPost2010Prop38
140
0.0
102
RTVSPost2010PropOp38
 70
     1
102
RTVSPost2010Prop39
140
1.0
102
RTVSPost2010PropOp39
 70
     1
102
RTVSPost2010Prop40
 90
        0
102
RTVSPost2010PropOp40
 70
     1
102
RTVSPost2010Prop41ColorIndex
 90
       18
102
RTVSPost2010Prop41ColorRGB
 90
        0
102
RTVSPost2010PropOp41
 70
     1
102
RTVSPost2010Prop42
 90
       50
102
RTVSPost2010PropOp42
 70
     1
102
RTVSPost2010Prop43
 90
        3
102
RTVSPost2010PropOp43
 70
     1
102
RTVSPost2010Prop44ColorIndex
 90
        5
102
RTVSPost2010Prop44ColorRGB
 90
      255
102
RTVSPost2010PropOp44
 70
     1
102
RTVSPost2010Prop45
280
     0
102
RTVSPost2010PropOp45
 70
     1
102
RTVSPost2010Prop46
 90
       50
102
RTVSPost2010PropOp46
 70
     1
102
RTVSPost2010Prop47
 90
       50
102
RTVSPost2010PropOp47
 70
     1
102
RTVSPost2010Prop48
 90
       50
102
RTVSPost2010PropOp48
 70
     1
102
RTVSPost2010Prop49
280
     0
102
RTVSPost2010PropOp49
 70
     1
102
RTVSPost2010Prop50
 90
       50
102
RTVSPost2010PropOp50
 70
     1
102
RTVSPost2010Prop51ColorIndex
 90
      256
102
RTVSPost2010Prop51ColorRGB
 90
-16777216
102
RTVSPost2010PropOp51
 70
     0
102
RTVSPost2010Prop52
140
1.0
102
RTVSPost2010PropOp52
 70
     0
102
RTVSPost2010Prop53
 90
        2
102
RTVSPost2010PropOp53
 70
     1
102
RTVSPost2010Prop54
  1
strokes_ogs.tif
102
RTVSPost2010PropOp54
 70
     1
102
RTVSPost2010Prop55
280
     0
102
RTVSPost2010PropOp55
 70
     1
102
RTVSPost2010Prop56
140
1.0
102
RTVSPost2010PropOp56
 70
     1
102
RTVSPost2010Prop57
140
1.0
102
RTVSPost2010PropOp57
 70
     1
  0
XRECORD
  5
263
102
{ACAD_REACTORS
330
262
102
}
330
262
100
AcDbXrecord
280
     1
102
RTVSPropertyOp0
 70
     1
102
RTVSPropertyOp1
 70
     1
102
RTVSPropertyOp2
 70
     1
102
RTVSPropertyOp3
 70
     1
102
RTVSPropertyOp4
 70
     1
102
RTVSPropertyOp5
 70
     1
102
RTVSPropertyOp6
 70
     1
102
RTVSPropertyOp7
 70
     1
102
RTVSPropertyOp8
 70
     1
102
RTVSPropertyOp9
 70
     1
102
RTVSPropertyOp10
 70
     1
102
RTVSPropertyOp11
 70
     1
102
RTVSPropertyOp12
 70
     1
102
RTVSPropertyOp13
 70
     1
102
RTVSPropertyOp14
 70
     1
102
RTVSPropertyOp15
 70
     1
102
RTVSPropertyOp16
 70
     1
102
RTVSPropertyOp17
 70
     1
102
RTVSPropertyOp18
 70
     1
102
RTVSPropertyOp19
 70
     1
102
RTVSPropertyOp20
 70
     1
102
RTVSPropertyOp21
 70
     1
102
RTVSPropertyOp22
 70
     1
102
RTVSPropertyOp23
 70
     1
102
RTVSPropertyOp24
 70
     1
102
RTVSPropertyOp25
 70
     1
102
RTVSPropertyOp26
 70
     1
102
RTVSPropertyOp27
 70
     1
102
RTVSPropertyOp28
 70
     1
102
RTVSPropertyOp29
 70
     1
102
RTVSPropertyOp30
 70
     1
102
RTVSPropertyOp31
 70
     1
102
RTVSPropertyOp32
 70
     1
102
RTVSPropertyOp33
 70
     1
102
RTVSPropertyOp34
 70
     1
102
RTVSPropertyOp35
 70
     1
102
RTVSPropertyOp36
 70
     1
102
RTVSPropertyOp37
 70
     1
102
RTVSPropertyOp38
 70
     1
102
RTVSPropertyOp39
 70
     1
102
RTVSPropertyOp40
 70
     1
102
RTVSPropertyOp41
 70
     1
102
RTVSPropertyOp42
 70
     1
102
RTVSPropertyOp43
 70
     1
102
RTVSPropertyOp44
 70
     1
102
RTVSPropertyOp45
 70
     1
102
RTVSPropertyOp46
 70
     1
102
RTVSPropertyOp47
 70
     1
102
RTVSPropertyOp48
 70
     1
102
RTVSPropertyOp49
 70
     1
102
RTVSPropertyOp50
 70
     1
102
RTVSPropertyOp51
 70
     0
102
RTVSPropertyOp52
 70
     0
102
RTVSPropertyOp53
 70
     1
102
RTVSPropertyOp54
 70
     1
102
RTVSPropertyOp55
 70
     1
102
RTVSPropertyOp56
 70
     1
102
RTVSPropertyOp57
 70
     1
102
RTVSPost2010Prop28
280
     0
102
RTVSPost2010PropOp28
 70
     1
102
RTVSPost2010Prop29
280
     1
102
RTVSPost2010PropOp29
 70
     1
102
RTVSPost2010Prop30
280
     1
102
RTVSPost2010PropOp30
 70
     1
102
RTVSPost2010Prop31
280
     0
102
RTVSPost2010PropOp31
 70
     1
102
RTVSPost2010Prop32
280
     0
102
RTVSPost2010PropOp32
 70
     1
102
RTVSPost2010Prop33
280
     0
102
RTVSPost2010PropOp33
 70
     1
102
RTVSPost2010Prop34
280
     0
102
RTVSPost2010PropOp34
 70
     1
102
RTVSPost2010Prop35
280
     0
102
RTVSPost2010PropOp35
 70
     1
102
RTVSPost2010Prop36
280
     0
102
RTVSPost2010PropOp36
 70
     1
102
RTVSPost2010Prop37
 90
       50
102
RTVSPost2010PropOp37
 70
     1
102
RTVSPost2010Prop38
140
0.0
102
RTVSPost2010PropOp38
 70
     1
102
RTVSPost2010Prop39
140
1.0
102
RTVSPost2010PropOp39
 70
     1
102
RTVSPost2010Prop40
 90
        0
102
RTVSPost2010PropOp40
 70
     1
102
RTVSPost2010Prop41ColorIndex
 90
       18
102
RTVSPost2010Prop41ColorRGB
 90
        0
102
RTVSPost2010PropOp41
 70
     1
102
RTVSPost2010Prop42
 90
       50
102
RTVSPost2010PropOp42
 70
     1
102
RTVSPost2010Prop43
 90
        3
102
RTVSPost2010PropOp43
 70
     1
102
RTVSPost2010Prop44ColorIndex
 90
        5
102
RTVSPost2010Prop44ColorRGB
 90
      255
102
RTVSPost2010PropOp44
 70
     1
102
RTVSPost2010Prop45
280
     0
102
RTVSPost2010PropOp45
 70
     1
102
RTVSPost2010Prop46
 90
       50
102
RTVSPost2010PropOp46
 70
     1
102
RTVSPost2010Prop47
 90
       50
102
RTVSPost2010PropOp47
 70
     1
102
RTVSPost2010Prop48
 90
       50
102
RTVSPost2010PropOp48
 70
     1
102
RTVSPost2010Prop49
280
     0
102
RTVSPost2010PropOp49
 70
     1
102
RTVSPost2010Prop50
 90
       50
102
RTVSPost2010PropOp50
 70
     1
102
RTVSPost2010Prop51ColorIndex
 90
      256
102
RTVSPost2010Prop51ColorRGB
 90
-16777216
102
RTVSPost2010PropOp51
 70
     0
102
RTVSPost2010Prop52
140
1.0
102
RTVSPost2010PropOp52
 70
     0
102
RTVSPost2010Prop53
 90
        2
102
RTVSPost2010PropOp53
 70
     1
102
RTVSPost2010Prop54
  1
strokes_ogs.tif
102
RTVSPost2010PropOp54
 70
     1
102
RTVSPost2010Prop55
280
     0
102
RTVSPost2010PropOp55
 70
     1
102
RTVSPost2010Prop56
140
1.0
102
RTVSPost2010PropOp56
 70
     1
102
RTVSPost2010Prop57
140
1.0
102
RTVSPost2010PropOp57
 70
     1
  0
XRECORD
  5
269
102
{ACAD_REACTORS
330
268
102
}
330
268
100
AcDbXrecord
280
     1
102
RTVSPropertyOp0
 70
     1
102
RTVSPropertyOp1
 70
     1
102
RTVSPropertyOp2
 70
     1
102
RTVSPropertyOp3
 70
     1
102
RTVSPropertyOp4
 70
     1
102
RTVSPropertyOp5
 70
     1
102
RTVSPropertyOp6
 70
     1
102
RTVSPropertyOp7
 70
     1
102
RTVSPropertyOp8
 70
     1
102
RTVSPropertyOp9
 70
     1
102
RTVSPropertyOp10
 70
     1
102
RTVSPropertyOp11
 70
     1
102
RTVSPropertyOp12
 70
     1
102
RTVSPropertyOp13
 70
     1
102
RTVSPropertyOp14
 70
     1
102
RTVSPropertyOp15
 70
     1
102
RTVSPropertyOp16
 70
     1
102
RTVSPropertyOp17
 70
     1
102
RTVSPropertyOp18
 70
     1
102
RTVSPropertyOp19
 70
     1
102
RTVSPropertyOp20
 70
     1
102
RTVSPropertyOp21
 70
     1
102
RTVSPropertyOp22
 70
     1
102
RTVSPropertyOp23
 70
     1
102
RTVSPropertyOp24
 70
     1
102
RTVSPropertyOp25
 70
     1
102
RTVSPropertyOp26
 70
     1
102
RTVSPropertyOp27
 70
     1
102
RTVSPropertyOp28
 70
     1
102
RTVSPropertyOp29
 70
     1
102
RTVSPropertyOp30
 70
     1
102
RTVSPropertyOp31
 70
     1
102
RTVSPropertyOp32
 70
     1
102
RTVSPropertyOp33
 70
     1
102
RTVSPropertyOp34
 70
     1
102
RTVSPropertyOp35
 70
     1
102
RTVSPropertyOp36
 70
     1
102
RTVSPropertyOp37
 70
     1
102
RTVSPropertyOp38
 70
     1
102
RTVSPropertyOp39
 70
     1
102
RTVSPropertyOp40
 70
     1
102
RTVSPropertyOp41
 70
     1
102
RTVSPropertyOp42
 70
     1
102
RTVSPropertyOp43
 70
     1
102
RTVSPropertyOp44
 70
     1
102
RTVSPropertyOp45
 70
     1
102
RTVSPropertyOp46
 70
     1
102
RTVSPropertyOp47
 70
     1
102
RTVSPropertyOp48
 70
     1
102
RTVSPropertyOp49
 70
     1
102
RTVSPropertyOp50
 70
     1
102
RTVSPropertyOp51
 70
     0
102
RTVSPropertyOp52
 70
     0
102
RTVSPropertyOp53
 70
     1
102
RTVSPropertyOp54
 70
     1
102
RTVSPropertyOp55
 70
     1
102
RTVSPropertyOp56
 70
     1
102
RTVSPropertyOp57
 70
     1
102
RTVSPost2010Prop28
280
     0
102
RTVSPost2010PropOp28
 70
     1
102
RTVSPost2010Prop29
280
     1
102
RTVSPost2010PropOp29
 70
     1
102
RTVSPost2010Prop30
280
     1
102
RTVSPost2010PropOp30
 70
     1
102
RTVSPost2010Prop31
280
     0
102
RTVSPost2010PropOp31
 70
     1
102
RTVSPost2010Prop32
280
     0
102
RTVSPost2010PropOp32
 70
     1
102
RTVSPost2010Prop33
280
     0
102
RTVSPost2010PropOp33
 70
     1
102
RTVSPost2010Prop34
280
     0
102
RTVSPost2010PropOp34
 70
     1
102
RTVSPost2010Prop35
280
     0
102
RTVSPost2010PropOp35
 70
     1
102
RTVSPost2010Prop36
280
     0
102
RTVSPost2010PropOp36
 70
     1
102
RTVSPost2010Prop37
 90
       50
102
RTVSPost2010PropOp37
 70
     1
102
RTVSPost2010Prop38
140
0.0
102
RTVSPost2010PropOp38
 70
     1
102
RTVSPost2010Prop39
140
1.0
102
RTVSPost2010PropOp39
 70
     1
102
RTVSPost2010Prop40
 90
        0
102
RTVSPost2010PropOp40
 70
     1
102
RTVSPost2010Prop41ColorIndex
 90
       18
102
RTVSPost2010Prop41ColorRGB
 90
        0
102
RTVSPost2010PropOp41
 70
     1
102
RTVSPost2010Prop42
 90
       50
102
RTVSPost2010PropOp42
 70
     1
102
RTVSPost2010Prop43
 90
        3
102
RTVSPost2010PropOp43
 70
     1
102
RTVSPost2010Prop44ColorIndex
 90
        5
102
RTVSPost2010Prop44ColorRGB
 90
      255
102
RTVSPost2010PropOp44
 70
     1
102
RTVSPost2010Prop45
280
     0
102
RTVSPost2010PropOp45
 70
     1
102
RTVSPost2010Prop46
 90
       50
102
RTVSPost2010PropOp46
 70
     1
102
RTVSPost2010Prop47
 90
       50
102
RTVSPost2010PropOp47
 70
     1
102
RTVSPost2010Prop48
 90
       50
102
RTVSPost2010PropOp48
 70
     1
102
RTVSPost2010Prop49
280
     0
102
RTVSPost2010PropOp49
 70
     1
102
RTVSPost2010Prop50
 90
       50
102
RTVSPost2010PropOp50
 70
     1
102
RTVSPost2010Prop51ColorIndex
 90
      256
102
RTVSPost2010Prop51ColorRGB
 90
-16777216
102
RTVSPost2010PropOp51
 70
     0
102
RTVSPost2010Prop52
140
1.0
102
RTVSPost2010PropOp52
 70
     0
102
RTVSPost2010Prop53
 90
        2
102
RTVSPost2010PropOp53
 70
     1
102
RTVSPost2010Prop54
  1
strokes_ogs.tif
102
RTVSPost2010PropOp54
 70
     1
102
RTVSPost2010Prop55
280
     0
102
RTVSPost2010PropOp55
 70
     1
102
RTVSPost2010Prop56
140
1.0
102
RTVSPost2010PropOp56
 70
     1
102
RTVSPost2010Prop57
140
1.0
102
RTVSPost2010PropOp57
 70
     1
  0
XRECORD
  5
27D
102
{ACAD_REACTORS
330
27C
102
}
330
27C
100
AcDbXrecord
280
     1
102
RTVSPropertyOp0
 70
     0
102
RTVSPropertyOp1
 70
     0
102
RTVSPropertyOp2
 70
     0
102
RTVSPropertyOp3
 70
     0
102
RTVSPropertyOp4
 70
     0
102
RTVSPropertyOp5
 70
     0
102
RTVSPropertyOp6
 70
     0
102
RTVSPropertyOp7
 70
     0
102
RTVSPropertyOp8
 70
     0
102
RTVSPropertyOp9
 70
     0
102
RTVSPropertyOp10
 70
     0
102
RTVSPropertyOp11
 70
     0
102
RTVSPropertyOp12
 70
     0
102
RTVSPropertyOp13
 70
     0
102
RTVSPropertyOp14
 70
     2
102
RTVSPropertyOp15
 70
     0
102
RTVSPropertyOp16
 70
     0
102
RTVSPropertyOp17
 70
     0
102
RTVSPropertyOp18
 70
     0
102
RTVSPropertyOp19
 70
     0
102
RTVSPropertyOp20
 70
     0
102
RTVSPropertyOp21
 70
     0
102
RTVSPropertyOp22
 70
     0
102
RTVSPropertyOp23
 70
     0
102
RTVSPropertyOp24
 70
     0
102
RTVSPropertyOp25
 70
     0
102
RTVSPropertyOp26
 70
     0
102
RTVSPropertyOp27
 70
     0
102
RTVSPropertyOp28
 70
     0
102
RTVSPropertyOp29
 70
     0
102
RTVSPropertyOp30
 70
     0
102
RTVSPropertyOp31
 70
     0
102
RTVSPropertyOp32
 70
     0
102
RTVSPropertyOp33
 70
     0
102
RTVSPropertyOp34
 70
     0
102
RTVSPropertyOp35
 70
     0
102
RTVSPropertyOp36
 70
     0
102
RTVSPropertyOp37
 70
     0
102
RTVSPropertyOp38
 70
     0
102
RTVSPropertyOp39
 70
     0
102
RTVSPropertyOp40
 70
     0
102
RTVSPropertyOp41
 70
     0
102
RTVSPropertyOp42
 70
     0
102
RTVSPropertyOp43
 70
     0
102
RTVSPropertyOp44
 70
     0
102
RTVSPropertyOp45
 70
     0
102
RTVSPropertyOp46
 70
     0
102
RTVSPropertyOp47
 70
     0
102
RTVSPropertyOp48
 70
     0
102
RTVSPropertyOp49
 70
     0
102
RTVSPropertyOp50
 70
     0
102
RTVSPropertyOp51
 70
     0
102
RTVSPropertyOp52
 70
     0
102
RTVSPropertyOp53
 70
     0
102
RTVSPropertyOp54
 70
     0
102
RTVSPropertyOp55
 70
     0
102
RTVSPropertyOp56
 70
     0
102
RTVSPropertyOp57
 70
     0
102
RTVSPost2010Prop28
280
     0
102
RTVSPost2010PropOp28
 70
     0
102
RTVSPost2010Prop29
280
     1
102
RTVSPost2010PropOp29
 70
     0
102
RTVSPost2010Prop30
280
     1
102
RTVSPost2010PropOp30
 70
     0
102
RTVSPost2010Prop31
280
     0
102
RTVSPost2010PropOp31
 70
     0
102
RTVSPost2010Prop32
280
     0
102
RTVSPost2010PropOp32
 70
     0
102
RTVSPost2010Prop33
280
     0
102
RTVSPost2010PropOp33
 70
     0
102
RTVSPost2010Prop34
280
     0
102
RTVSPost2010PropOp34
 70
     0
102
RTVSPost2010Prop35
280
     0
102
RTVSPost2010PropOp35
 70
     0
102
RTVSPost2010Prop36
280
     0
102
RTVSPost2010PropOp36
 70
     0
102
RTVSPost2010Prop37
 90
       50
102
RTVSPost2010PropOp37
 70
     0
102
RTVSPost2010Prop38
140
0.0
102
RTVSPost2010PropOp38
 70
     0
102
RTVSPost2010Prop39
140
1.0
102
RTVSPost2010PropOp39
 70
     0
102
RTVSPost2010Prop40
 90
        0
102
RTVSPost2010PropOp40
 70
     0
102
RTVSPost2010Prop41ColorIndex
 90
       18
102
RTVSPost2010Prop41ColorRGB
 90
        0
102
RTVSPost2010PropOp41
 70
     0
102
RTVSPost2010Prop42
 90
       50
102
RTVSPost2010PropOp42
 70
     0
102
RTVSPost2010Prop43
 90
        3
102
RTVSPost2010PropOp43
 70
     0
102
RTVSPost2010Prop44ColorIndex
 90
        5
102
RTVSPost2010Prop44ColorRGB
 90
      255
102
RTVSPost2010PropOp44
 70
     0
102
RTVSPost2010Prop45
280
     0
102
RTVSPost2010PropOp45
 70
     0
102
RTVSPost2010Prop46
 90
       50
102
RTVSPost2010PropOp46
 70
     0
102
RTVSPost2010Prop47
 90
       50
102
RTVSPost2010PropOp47
 70
     0
102
RTVSPost2010Prop48
 90
       50
102
RTVSPost2010PropOp48
 70
     0
102
RTVSPost2010Prop49
280
     0
102
RTVSPost2010PropOp49
 70
     0
102
RTVSPost2010Prop50
 90
       50
102
RTVSPost2010PropOp50
 70
     0
102
RTVSPost2010Prop51ColorIndex
 90
      256
102
RTVSPost2010Prop51ColorRGB
 90
-16777216
102
RTVSPost2010PropOp51
 70
     0
102
RTVSPost2010Prop52
140
1.0
102
RTVSPost2010PropOp52
 70
     0
102
RTVSPost2010Prop53
 90
        2
102
RTVSPost2010PropOp53
 70
     0
102
RTVSPost2010Prop54
  1
strokes_ogs.tif
102
RTVSPost2010PropOp54
 70
     0
102
RTVSPost2010Prop55
280
     0
102
RTVSPost2010PropOp55
 70
     0
102
RTVSPost2010Prop56
140
1.0
102
RTVSPost2010PropOp56
 70
     0
102
RTVSPost2010Prop57
140
1.0
102
RTVSPost2010PropOp57
 70
     0
  0
XRECORD
  5
277
102
{ACAD_REACTORS
330
276
102
}
330
276
100
AcDbXrecord
280
     1
102
RTVSPropertyOp0
 70
     1
102
RTVSPropertyOp1
 70
     1
102
RTVSPropertyOp2
 70
     1
102
RTVSPropertyOp3
 70
     1
102
RTVSPropertyOp4
 70
     1
102
RTVSPropertyOp5
 70
     1
102
RTVSPropertyOp6
 70
     1
102
RTVSPropertyOp7
 70
     1
102
RTVSPropertyOp8
 70
     1
102
RTVSPropertyOp9
 70
     1
102
RTVSPropertyOp10
 70
     1
102
RTVSPropertyOp11
 70
     1
102
RTVSPropertyOp12
 70
     1
102
RTVSPropertyOp13
 70
     1
102
RTVSPropertyOp14
 70
     1
102
RTVSPropertyOp15
 70
     1
102
RTVSPropertyOp16
 70
     1
102
RTVSPropertyOp17
 70
     1
102
RTVSPropertyOp18
 70
     1
102
RTVSPropertyOp19
 70
     1
102
RTVSPropertyOp20
 70
     1
102
RTVSPropertyOp21
 70
     1
102
RTVSPropertyOp22
 70
     1
102
RTVSPropertyOp23
 70
     1
102
RTVSPropertyOp24
 70
     1
102
RTVSPropertyOp25
 70
     1
102
RTVSPropertyOp26
 70
     1
102
RTVSPropertyOp27
 70
     1
102
RTVSPropertyOp28
 70
     1
102
RTVSPropertyOp29
 70
     1
102
RTVSPropertyOp30
 70
     1
102
RTVSPropertyOp31
 70
     1
102
RTVSPropertyOp32
 70
     1
102
RTVSPropertyOp33
 70
     1
102
RTVSPropertyOp34
 70
     1
102
RTVSPropertyOp35
 70
     1
102
RTVSPropertyOp36
 70
     1
102
RTVSPropertyOp37
 70
     1
102
RTVSPropertyOp38
 70
     1
102
RTVSPropertyOp39
 70
     1
102
RTVSPropertyOp40
 70
     1
102
RTVSPropertyOp41
 70
     1
102
RTVSPropertyOp42
 70
     1
102
RTVSPropertyOp43
 70
     1
102
RTVSPropertyOp44
 70
     1
102
RTVSPropertyOp45
 70
     1
102
RTVSPropertyOp46
 70
     1
102
RTVSPropertyOp47
 70
     1
102
RTVSPropertyOp48
 70
     1
102
RTVSPropertyOp49
 70
     1
102
RTVSPropertyOp50
 70
     1
102
RTVSPropertyOp51
 70
     0
102
RTVSPropertyOp52
 70
     0
102
RTVSPropertyOp53
 70
     1
102
RTVSPropertyOp54
 70
     1
102
RTVSPropertyOp55
 70
     1
102
RTVSPropertyOp56
 70
     1
102
RTVSPropertyOp57
 70
     1
102
RTVSPost2010Prop28
280
     0
102
RTVSPost2010PropOp28
 70
     1
102
RTVSPost2010Prop29
280
     1
102
RTVSPost2010PropOp29
 70
     1
102
RTVSPost2010Prop30
280
     1
102
RTVSPost2010PropOp30
 70
     1
102
RTVSPost2010Prop31
280
     0
102
RTVSPost2010PropOp31
 70
     1
102
RTVSPost2010Prop32
280
     0
102
RTVSPost2010PropOp32
 70
     1
102
RTVSPost2010Prop33
280
     0
102
RTVSPost2010PropOp33
 70
     1
102
RTVSPost2010Prop34
280
     0
102
RTVSPost2010PropOp34
 70
     1
102
RTVSPost2010Prop35
280
     0
102
RTVSPost2010PropOp35
 70
     1
102
RTVSPost2010Prop36
280
     0
102
RTVSPost2010PropOp36
 70
     1
102
RTVSPost2010Prop37
 90
       50
102
RTVSPost2010PropOp37
 70
     1
102
RTVSPost2010Prop38
140
0.0
102
RTVSPost2010PropOp38
 70
     1
102
RTVSPost2010Prop39
140
1.0
102
RTVSPost2010PropOp39
 70
     1
102
RTVSPost2010Prop40
 90
        0
102
RTVSPost2010PropOp40
 70
     1
102
RTVSPost2010Prop41ColorIndex
 90
       18
102
RTVSPost2010Prop41ColorRGB
 90
        0
102
RTVSPost2010PropOp41
 70
     1
102
RTVSPost2010Prop42
 90
       50
102
RTVSPost2010PropOp42
 70
     1
102
RTVSPost2010Prop43
 90
        3
102
RTVSPost2010PropOp43
 70
     1
102
RTVSPost2010Prop44ColorIndex
 90
        5
102
RTVSPost2010Prop44ColorRGB
 90
      255
102
RTVSPost2010PropOp44
 70
     1
102
RTVSPost2010Prop45
280
     0
102
RTVSPost2010PropOp45
 70
     1
102
RTVSPost2010Prop46
 90
       50
102
RTVSPost2010PropOp46
 70
     1
102
RTVSPost2010Prop47
 90
       50
102
RTVSPost2010PropOp47
 70
     1
102
RTVSPost2010Prop48
 90
       50
102
RTVSPost2010PropOp48
 70
     1
102
RTVSPost2010Prop49
280
     0
102
RTVSPost2010PropOp49
 70
     1
102
RTVSPost2010Prop50
 90
       50
102
RTVSPost2010PropOp50
 70
     1
102
RTVSPost2010Prop51ColorIndex
 90
      256
102
RTVSPost2010Prop51ColorRGB
 90
-16777216
102
RTVSPost2010PropOp51
 70
     0
102
RTVSPost2010Prop52
140
1.0
102
RTVSPost2010PropOp52
 70
     0
102
RTVSPost2010Prop53
 90
        2
102
RTVSPost2010PropOp53
 70
     1
102
RTVSPost2010Prop54
  1
strokes_ogs.tif
102
RTVSPost2010PropOp54
 70
     1
102
RTVSPost2010Prop55
280
     0
102
RTVSPost2010PropOp55
 70
     1
102
RTVSPost2010Prop56
140
1.0
102
RTVSPost2010PropOp56
 70
     1
102
RTVSPost2010Prop57
140
1.0
102
RTVSPost2010PropOp57
 70
     1
  0
XRECORD
  5
27F
102
{ACAD_REACTORS
330
27E
102
}
330
27E
100
AcDbXrecord
280
     1
102
RTVSPropertyOp0
 70
     0
102
RTVSPropertyOp1
 70
     0
102
RTVSPropertyOp2
 70
     0
102
RTVSPropertyOp3
 70
     0
102
RTVSPropertyOp4
 70
     0
102
RTVSPropertyOp5
 70
     0
102
RTVSPropertyOp6
 70
     0
102
RTVSPropertyOp7
 70
     0
102
RTVSPropertyOp8
 70
     0
102
RTVSPropertyOp9
 70
     0
102
RTVSPropertyOp10
 70
     0
102
RTVSPropertyOp11
 70
     0
102
RTVSPropertyOp12
 70
     0
102
RTVSPropertyOp13
 70
     0
102
RTVSPropertyOp14
 70
     2
102
RTVSPropertyOp15
 70
     0
102
RTVSPropertyOp16
 70
     0
102
RTVSPropertyOp17
 70
     0
102
RTVSPropertyOp18
 70
     0
102
RTVSPropertyOp19
 70
     0
102
RTVSPropertyOp20
 70
     0
102
RTVSPropertyOp21
 70
     0
102
RTVSPropertyOp22
 70
     0
102
RTVSPropertyOp23
 70
     0
102
RTVSPropertyOp24
 70
     0
102
RTVSPropertyOp25
 70
     0
102
RTVSPropertyOp26
 70
     0
102
RTVSPropertyOp27
 70
     0
102
RTVSPropertyOp28
 70
     0
102
RTVSPropertyOp29
 70
     0
102
RTVSPropertyOp30
 70
     0
102
RTVSPropertyOp31
 70
     0
102
RTVSPropertyOp32
 70
     0
102
RTVSPropertyOp33
 70
     0
102
RTVSPropertyOp34
 70
     0
102
RTVSPropertyOp35
 70
     0
102
RTVSPropertyOp36
 70
     0
102
RTVSPropertyOp37
 70
     0
102
RTVSPropertyOp38
 70
     0
102
RTVSPropertyOp39
 70
     0
102
RTVSPropertyOp40
 70
     0
102
RTVSPropertyOp41
 70
     0
102
RTVSPropertyOp42
 70
     0
102
RTVSPropertyOp43
 70
     0
102
RTVSPropertyOp44
 70
     0
102
RTVSPropertyOp45
 70
     0
102
RTVSPropertyOp46
 70
     0
102
RTVSPropertyOp47
 70
     0
102
RTVSPropertyOp48
 70
     0
102
RTVSPropertyOp49
 70
     0
102
RTVSPropertyOp50
 70
     0
102
RTVSPropertyOp51
 70
     0
102
RTVSPropertyOp52
 70
     0
102
RTVSPropertyOp53
 70
     0
102
RTVSPropertyOp54
 70
     0
102
RTVSPropertyOp55
 70
     0
102
RTVSPropertyOp56
 70
     0
102
RTVSPropertyOp57
 70
     0
102
RTVSPost2010Prop28
280
     0
102
RTVSPost2010PropOp28
 70
     0
102
RTVSPost2010Prop29
280
     1
102
RTVSPost2010PropOp29
 70
     0
102
RTVSPost2010Prop30
280
     1
102
RTVSPost2010PropOp30
 70
     0
102
RTVSPost2010Prop31
280
     0
102
RTVSPost2010PropOp31
 70
     0
102
RTVSPost2010Prop32
280
     0
102
RTVSPost2010PropOp32
 70
     0
102
RTVSPost2010Prop33
280
     0
102
RTVSPost2010PropOp33
 70
     0
102
RTVSPost2010Prop34
280
     0
102
RTVSPost2010PropOp34
 70
     0
102
RTVSPost2010Prop35
280
     0
102
RTVSPost2010PropOp35
 70
     0
102
RTVSPost2010Prop36
280
     0
102
RTVSPost2010PropOp36
 70
     0
102
RTVSPost2010Prop37
 90
       50
102
RTVSPost2010PropOp37
 70
     0
102
RTVSPost2010Prop38
140
0.0
102
RTVSPost2010PropOp38
 70
     0
102
RTVSPost2010Prop39
140
1.0
102
RTVSPost2010PropOp39
 70
     0
102
RTVSPost2010Prop40
 90
        0
102
RTVSPost2010PropOp40
 70
     0
102
RTVSPost2010Prop41ColorIndex
 90
       18
102
RTVSPost2010Prop41ColorRGB
 90
        0
102
RTVSPost2010PropOp41
 70
     0
102
RTVSPost2010Prop42
 90
       50
102
RTVSPost2010PropOp42
 70
     0
102
RTVSPost2010Prop43
 90
        3
102
RTVSPost2010PropOp43
 70
     0
102
RTVSPost2010Prop44ColorIndex
 90
        5
102
RTVSPost2010Prop44ColorRGB
 90
      255
102
RTVSPost2010PropOp44
 70
     0
102
RTVSPost2010Prop45
280
     0
102
RTVSPost2010PropOp45
 70
     0
102
RTVSPost2010Prop46
 90
       50
102
RTVSPost2010PropOp46
 70
     0
102
RTVSPost2010Prop47
 90
       50
102
RTVSPost2010PropOp47
 70
     0
102
RTVSPost2010Prop48
 90
       50
102
RTVSPost2010PropOp48
 70
     0
102
RTVSPost2010Prop49
280
     0
102
RTVSPost2010PropOp49
 70
     0
102
RTVSPost2010Prop50
 90
       50
102
RTVSPost2010PropOp50
 70
     0
102
RTVSPost2010Prop51ColorIndex
 90
      256
102
RTVSPost2010Prop51ColorRGB
 90
-16777216
102
RTVSPost2010PropOp51
 70
     0
102
RTVSPost2010Prop52
140
1.0
102
RTVSPost2010PropOp52
 70
     0
102
RTVSPost2010Prop53
 90
        2
102
RTVSPost2010PropOp53
 70
     0
102
RTVSPost2010Prop54
  1
strokes_ogs.tif
102
RTVSPost2010PropOp54
 70
     0
102
RTVSPost2010Prop55
280
     0
102
RTVSPost2010PropOp55
 70
     0
102
RTVSPost2010Prop56
140
1.0
102
RTVSPost2010PropOp56
 70
     0
102
RTVSPost2010Prop57
140
1.0
102
RTVSPost2010PropOp57
 70
     0
  0
XRECORD
  5
26D
102
{ACAD_REACTORS
330
26C
102
}
330
26C
100
AcDbXrecord
280
     1
102
RTVSPropertyOp0
 70
     1
102
RTVSPropertyOp1
 70
     1
102
RTVSPropertyOp2
 70
     1
102
RTVSPropertyOp3
 70
     1
102
RTVSPropertyOp4
 70
     1
102
RTVSPropertyOp5
 70
     1
102
RTVSPropertyOp6
 70
     1
102
RTVSPropertyOp7
 70
     1
102
RTVSPropertyOp8
 70
     1
102
RTVSPropertyOp9
 70
     1
102
RTVSPropertyOp10
 70
     1
102
RTVSPropertyOp11
 70
     1
102
RTVSPropertyOp12
 70
     1
102
RTVSPropertyOp13
 70
     1
102
RTVSPropertyOp14
 70
     1
102
RTVSPropertyOp15
 70
     1
102
RTVSPropertyOp16
 70
     1
102
RTVSPropertyOp17
 70
     1
102
RTVSPropertyOp18
 70
     1
102
RTVSPropertyOp19
 70
     1
102
RTVSPropertyOp20
 70
     1
102
RTVSPropertyOp21
 70
     1
102
RTVSPropertyOp22
 70
     1
102
RTVSPropertyOp23
 70
     1
102
RTVSPropertyOp24
 70
     1
102
RTVSPropertyOp25
 70
     1
102
RTVSPropertyOp26
 70
     1
102
RTVSPropertyOp27
 70
     1
102
RTVSPropertyOp28
 70
     1
102
RTVSPropertyOp29
 70
     1
102
RTVSPropertyOp30
 70
     1
102
RTVSPropertyOp31
 70
     1
102
RTVSPropertyOp32
 70
     1
102
RTVSPropertyOp33
 70
     1
102
RTVSPropertyOp34
 70
     1
102
RTVSPropertyOp35
 70
     1
102
RTVSPropertyOp36
 70
     1
102
RTVSPropertyOp37
 70
     1
102
RTVSPropertyOp38
 70
     1
102
RTVSPropertyOp39
 70
     1
102
RTVSPropertyOp40
 70
     1
102
RTVSPropertyOp41
 70
     1
102
RTVSPropertyOp42
 70
     1
102
RTVSPropertyOp43
 70
     1
102
RTVSPropertyOp44
 70
     1
102
RTVSPropertyOp45
 70
     1
102
RTVSPropertyOp46
 70
     1
102
RTVSPropertyOp47
 70
     1
102
RTVSPropertyOp48
 70
     1
102
RTVSPropertyOp49
 70
     1
102
RTVSPropertyOp50
 70
     1
102
RTVSPropertyOp51
 70
     0
102
RTVSPropertyOp52
 70
     0
102
RTVSPropertyOp53
 70
     1
102
RTVSPropertyOp54
 70
     1
102
RTVSPropertyOp55
 70
     1
102
RTVSPropertyOp56
 70
     1
102
RTVSPropertyOp57
 70
     1
102
RTVSPost2010Prop28
280
     0
102
RTVSPost2010PropOp28
 70
     1
102
RTVSPost2010Prop29
280
     1
102
RTVSPost2010PropOp29
 70
     1
102
RTVSPost2010Prop30
280
     1
102
RTVSPost2010PropOp30
 70
     1
102
RTVSPost2010Prop31
280
     0
102
RTVSPost2010PropOp31
 70
     1
102
RTVSPost2010Prop32
280
     0
102
RTVSPost2010PropOp32
 70
     1
102
RTVSPost2010Prop33
280
     0
102
RTVSPost2010PropOp33
 70
     1
102
RTVSPost2010Prop34
280
     0
102
RTVSPost2010PropOp34
 70
     1
102
RTVSPost2010Prop35
280
     0
102
RTVSPost2010PropOp35
 70
     1
102
RTVSPost2010Prop36
280
     0
102
RTVSPost2010PropOp36
 70
     1
102
RTVSPost2010Prop37
 90
       50
102
RTVSPost2010PropOp37
 70
     1
102
RTVSPost2010Prop38
140
0.0
102
RTVSPost2010PropOp38
 70
     1
102
RTVSPost2010Prop39
140
1.0
102
RTVSPost2010PropOp39
 70
     1
102
RTVSPost2010Prop40
 90
        0
102
RTVSPost2010PropOp40
 70
     1
102
RTVSPost2010Prop41ColorIndex
 90
       18
102
RTVSPost2010Prop41ColorRGB
 90
        0
102
RTVSPost2010PropOp41
 70
     1
102
RTVSPost2010Prop42
 90
       50
102
RTVSPost2010PropOp42
 70
     1
102
RTVSPost2010Prop43
 90
        3
102
RTVSPost2010PropOp43
 70
     1
102
RTVSPost2010Prop44ColorIndex
 90
        5
102
RTVSPost2010Prop44ColorRGB
 90
      255
102
RTVSPost2010PropOp44
 70
     1
102
RTVSPost2010Prop45
280
     0
102
RTVSPost2010PropOp45
 70
     1
102
RTVSPost2010Prop46
 90
       50
102
RTVSPost2010PropOp46
 70
     1
102
RTVSPost2010Prop47
 90
       50
102
RTVSPost2010PropOp47
 70
     1
102
RTVSPost2010Prop48
 90
       50
102
RTVSPost2010PropOp48
 70
     1
102
RTVSPost2010Prop49
280
     0
102
RTVSPost2010PropOp49
 70
     1
102
RTVSPost2010Prop50
 90
       50
102
RTVSPost2010PropOp50
 70
     1
102
RTVSPost2010Prop51ColorIndex
 90
      256
102
RTVSPost2010Prop51ColorRGB
 90
-16777216
102
RTVSPost2010PropOp51
 70
     0
102
RTVSPost2010Prop52
140
1.0
102
RTVSPost2010PropOp52
 70
     0
102
RTVSPost2010Prop53
 90
        2
102
RTVSPost2010PropOp53
 70
     1
102
RTVSPost2010Prop54
  1
strokes_ogs.tif
102
RTVSPost2010PropOp54
 70
     1
102
RTVSPost2010Prop55
280
     0
102
RTVSPost2010PropOp55
 70
     1
102
RTVSPost2010Prop56
140
1.0
102
RTVSPost2010PropOp56
 70
     1
102
RTVSPost2010Prop57
140
1.0
102
RTVSPost2010PropOp57
 70
     1
  0
XRECORD
  5
28B
102
{ACAD_REACTORS
330
28A
102
}
330
28A
100
AcDbXrecord
280
     1
102
RTVSPropertyOp0
 70
     1
102
RTVSPropertyOp1
 70
     1
102
RTVSPropertyOp2
 70
     1
102
RTVSPropertyOp3
 70
     1
102
RTVSPropertyOp4
 70
     1
102
RTVSPropertyOp5
 70
     1
102
RTVSPropertyOp6
 70
     1
102
RTVSPropertyOp7
 70
     1
102
RTVSPropertyOp8
 70
     1
102
RTVSPropertyOp9
 70
     1
102
RTVSPropertyOp10
 70
     1
102
RTVSPropertyOp11
 70
     1
102
RTVSPropertyOp12
 70
     1
102
RTVSPropertyOp13
 70
     1
102
RTVSPropertyOp14
 70
     1
102
RTVSPropertyOp15
 70
     1
102
RTVSPropertyOp16
 70
     1
102
RTVSPropertyOp17
 70
     1
102
RTVSPropertyOp18
 70
     1
102
RTVSPropertyOp19
 70
     1
102
RTVSPropertyOp20
 70
     1
102
RTVSPropertyOp21
 70
     1
102
RTVSPropertyOp22
 70
     1
102
RTVSPropertyOp23
 70
     1
102
RTVSPropertyOp24
 70
     1
102
RTVSPropertyOp25
 70
     1
102
RTVSPropertyOp26
 70
     1
102
RTVSPropertyOp27
 70
     1
102
RTVSPropertyOp28
 70
     1
102
RTVSPropertyOp29
 70
     1
102
RTVSPropertyOp30
 70
     1
102
RTVSPropertyOp31
 70
     1
102
RTVSPropertyOp32
 70
     1
102
RTVSPropertyOp33
 70
     1
102
RTVSPropertyOp34
 70
     1
102
RTVSPropertyOp35
 70
     1
102
RTVSPropertyOp36
 70
     1
102
RTVSPropertyOp37
 70
     1
102
RTVSPropertyOp38
 70
     1
102
RTVSPropertyOp39
 70
     1
102
RTVSPropertyOp40
 70
     1
102
RTVSPropertyOp41
 70
     1
102
RTVSPropertyOp42
 70
     1
102
RTVSPropertyOp43
 70
     1
102
RTVSPropertyOp44
 70
     1
102
RTVSPropertyOp45
 70
     1
102
RTVSPropertyOp46
 70
     1
102
RTVSPropertyOp47
 70
     1
102
RTVSPropertyOp48
 70
     1
102
RTVSPropertyOp49
 70
     1
102
RTVSPropertyOp50
 70
     1
102
RTVSPropertyOp51
 70
     0
102
RTVSPropertyOp52
 70
     0
102
RTVSPropertyOp53
 70
     1
102
RTVSPropertyOp54
 70
     1
102
RTVSPropertyOp55
 70
     1
102
RTVSPropertyOp56
 70
     1
102
RTVSPropertyOp57
 70
     1
102
RTVSPost2010Prop28
280
     0
102
RTVSPost2010PropOp28
 70
     1
102
RTVSPost2010Prop29
280
     1
102
RTVSPost2010PropOp29
 70
     1
102
RTVSPost2010Prop30
280
     1
102
RTVSPost2010PropOp30
 70
     1
102
RTVSPost2010Prop31
280
     0
102
RTVSPost2010PropOp31
 70
     1
102
RTVSPost2010Prop32
280
     0
102
RTVSPost2010PropOp32
 70
     1
102
RTVSPost2010Prop33
280
     0
102
RTVSPost2010PropOp33
 70
     1
102
RTVSPost2010Prop34
280
     0
102
RTVSPost2010PropOp34
 70
     1
102
RTVSPost2010Prop35
280
     0
102
RTVSPost2010PropOp35
 70
     1
102
RTVSPost2010Prop36
280
     0
102
RTVSPost2010PropOp36
 70
     1
102
RTVSPost2010Prop37
 90
       50
102
RTVSPost2010PropOp37
 70
     1
102
RTVSPost2010Prop38
140
0.0
102
RTVSPost2010PropOp38
 70
     1
102
RTVSPost2010Prop39
140
1.0
102
RTVSPost2010PropOp39
 70
     1
102
RTVSPost2010Prop40
 90
        0
102
RTVSPost2010PropOp40
 70
     1
102
RTVSPost2010Prop41ColorIndex
 90
       18
102
RTVSPost2010Prop41ColorRGB
 90
        0
102
RTVSPost2010PropOp41
 70
     1
102
RTVSPost2010Prop42
 90
       50
102
RTVSPost2010PropOp42
 70
     1
102
RTVSPost2010Prop43
 90
        3
102
RTVSPost2010PropOp43
 70
     1
102
RTVSPost2010Prop44ColorIndex
 90
        5
102
RTVSPost2010Prop44ColorRGB
 90
      255
102
RTVSPost2010PropOp44
 70
     1
102
RTVSPost2010Prop45
280
     0
102
RTVSPost2010PropOp45
 70
     1
102
RTVSPost2010Prop46
 90
       50
102
RTVSPost2010PropOp46
 70
     1
102
RTVSPost2010Prop47
 90
       50
102
RTVSPost2010PropOp47
 70
     1
102
RTVSPost2010Prop48
 90
       50
102
RTVSPost2010PropOp48
 70
     1
102
RTVSPost2010Prop49
280
     0
102
RTVSPost2010PropOp49
 70
     1
102
RTVSPost2010Prop50
 90
       50
102
RTVSPost2010PropOp50
 70
     1
102
RTVSPost2010Prop51ColorIndex
 90
      256
102
RTVSPost2010Prop51ColorRGB
 90
-16777216
102
RTVSPost2010PropOp51
 70
     0
102
RTVSPost2010Prop52
140
1.0
102
RTVSPost2010PropOp52
 70
     0
102
RTVSPost2010Prop53
 90
        2
102
RTVSPost2010PropOp53
 70
     1
102
RTVSPost2010Prop54
  1
strokes_ogs.tif
102
RTVSPost2010PropOp54
 70
     1
102
RTVSPost2010Prop55
280
     0
102
RTVSPost2010PropOp55
 70
     1
102
RTVSPost2010Prop56
140
1.0
102
RTVSPost2010PropOp56
 70
     1
102
RTVSPost2010Prop57
140
1.0
102
RTVSPost2010PropOp57
 70
     1
  0
XRECORD
  5
289
102
{ACAD_REACTORS
330
288
102
}
330
288
100
AcDbXrecord
280
     1
102
RTVSPropertyOp0
 70
     1
102
RTVSPropertyOp1
 70
     1
102
RTVSPropertyOp2
 70
     1
102
RTVSPropertyOp3
 70
     1
102
RTVSPropertyOp4
 70
     1
102
RTVSPropertyOp5
 70
     1
102
RTVSPropertyOp6
 70
     1
102
RTVSPropertyOp7
 70
     1
102
RTVSPropertyOp8
 70
     1
102
RTVSPropertyOp9
 70
     1
102
RTVSPropertyOp10
 70
     1
102
RTVSPropertyOp11
 70
     1
102
RTVSPropertyOp12
 70
     1
102
RTVSPropertyOp13
 70
     1
102
RTVSPropertyOp14
 70
     1
102
RTVSPropertyOp15
 70
     1
102
RTVSPropertyOp16
 70
     1
102
RTVSPropertyOp17
 70
     1
102
RTVSPropertyOp18
 70
     1
102
RTVSPropertyOp19
 70
     1
102
RTVSPropertyOp20
 70
     1
102
RTVSPropertyOp21
 70
     1
102
RTVSPropertyOp22
 70
     1
102
RTVSPropertyOp23
 70
     1
102
RTVSPropertyOp24
 70
     1
102
RTVSPropertyOp25
 70
     1
102
RTVSPropertyOp26
 70
     1
102
RTVSPropertyOp27
 70
     1
102
RTVSPropertyOp28
 70
     1
102
RTVSPropertyOp29
 70
     1
102
RTVSPropertyOp30
 70
     1
102
RTVSPropertyOp31
 70
     1
102
RTVSPropertyOp32
 70
     1
102
RTVSPropertyOp33
 70
     1
102
RTVSPropertyOp34
 70
     1
102
RTVSPropertyOp35
 70
     1
102
RTVSPropertyOp36
 70
     1
102
RTVSPropertyOp37
 70
     1
102
RTVSPropertyOp38
 70
     1
102
RTVSPropertyOp39
 70
     1
102
RTVSPropertyOp40
 70
     1
102
RTVSPropertyOp41
 70
     1
102
RTVSPropertyOp42
 70
     1
102
RTVSPropertyOp43
 70
     1
102
RTVSPropertyOp44
 70
     1
102
RTVSPropertyOp45
 70
     1
102
RTVSPropertyOp46
 70
     1
102
RTVSPropertyOp47
 70
     1
102
RTVSPropertyOp48
 70
     1
102
RTVSPropertyOp49
 70
     1
102
RTVSPropertyOp50
 70
     1
102
RTVSPropertyOp51
 70
     0
102
RTVSPropertyOp52
 70
     0
102
RTVSPropertyOp53
 70
     1
102
RTVSPropertyOp54
 70
     1
102
RTVSPropertyOp55
 70
     1
102
RTVSPropertyOp56
 70
     1
102
RTVSPropertyOp57
 70
     1
102
RTVSPost2010Prop28
280
     0
102
RTVSPost2010PropOp28
 70
     1
102
RTVSPost2010Prop29
280
     1
102
RTVSPost2010PropOp29
 70
     1
102
RTVSPost2010Prop30
280
     1
102
RTVSPost2010PropOp30
 70
     1
102
RTVSPost2010Prop31
280
     0
102
RTVSPost2010PropOp31
 70
     1
102
RTVSPost2010Prop32
280
     0
102
RTVSPost2010PropOp32
 70
     1
102
RTVSPost2010Prop33
280
     0
102
RTVSPost2010PropOp33
 70
     1
102
RTVSPost2010Prop34
280
     0
102
RTVSPost2010PropOp34
 70
     1
102
RTVSPost2010Prop35
280
     0
102
RTVSPost2010PropOp35
 70
     1
102
RTVSPost2010Prop36
280
     0
102
RTVSPost2010PropOp36
 70
     1
102
RTVSPost2010Prop37
 90
       50
102
RTVSPost2010PropOp37
 70
     1
102
RTVSPost2010Prop38
140
0.0
102
RTVSPost2010PropOp38
 70
     1
102
RTVSPost2010Prop39
140
1.0
102
RTVSPost2010PropOp39
 70
     1
102
RTVSPost2010Prop40
 90
        0
102
RTVSPost2010PropOp40
 70
     1
102
RTVSPost2010Prop41ColorIndex
 90
       18
102
RTVSPost2010Prop41ColorRGB
 90
        0
102
RTVSPost2010PropOp41
 70
     1
102
RTVSPost2010Prop42
 90
       50
102
RTVSPost2010PropOp42
 70
     1
102
RTVSPost2010Prop43
 90
        3
102
RTVSPost2010PropOp43
 70
     1
102
RTVSPost2010Prop44ColorIndex
 90
        5
102
RTVSPost2010Prop44ColorRGB
 90
      255
102
RTVSPost2010PropOp44
 70
     1
102
RTVSPost2010Prop45
280
     0
102
RTVSPost2010PropOp45
 70
     1
102
RTVSPost2010Prop46
 90
       50
102
RTVSPost2010PropOp46
 70
     1
102
RTVSPost2010Prop47
 90
       50
102
RTVSPost2010PropOp47
 70
     1
102
RTVSPost2010Prop48
 90
       50
102
RTVSPost2010PropOp48
 70
     1
102
RTVSPost2010Prop49
280
     0
102
RTVSPost2010PropOp49
 70
     1
102
RTVSPost2010Prop50
 90
       50
102
RTVSPost2010PropOp50
 70
     1
102
RTVSPost2010Prop51ColorIndex
 90
      256
102
RTVSPost2010Prop51ColorRGB
 90
-16777216
102
RTVSPost2010PropOp51
 70
     0
102
RTVSPost2010Prop52
140
1.0
102
RTVSPost2010PropOp52
 70
     0
102
RTVSPost2010Prop53
 90
        2
102
RTVSPost2010PropOp53
 70
     1
102
RTVSPost2010Prop54
  1
strokes_ogs.tif
102
RTVSPost2010PropOp54
 70
     1
102
RTVSPost2010Prop55
280
     0
102
RTVSPost2010PropOp55
 70
     1
102
RTVSPost2010Prop56
140
1.0
102
RTVSPost2010PropOp56
 70
     1
102
RTVSPost2010Prop57
140
1.0
102
RTVSPost2010PropOp57
 70
     1
  0
XRECORD
  5
283
102
{ACAD_REACTORS
330
282
102
}
330
282
100
AcDbXrecord
280
     1
102
RTVSPropertyOp0
 70
     1
102
RTVSPropertyOp1
 70
     1
102
RTVSPropertyOp2
 70
     1
102
RTVSPropertyOp3
 70
     1
102
RTVSPropertyOp4
 70
     1
102
RTVSPropertyOp5
 70
     1
102
RTVSPropertyOp6
 70
     1
102
RTVSPropertyOp7
 70
     1
102
RTVSPropertyOp8
 70
     1
102
RTVSPropertyOp9
 70
     1
102
RTVSPropertyOp10
 70
     1
102
RTVSPropertyOp11
 70
     1
102
RTVSPropertyOp12
 70
     1
102
RTVSPropertyOp13
 70
     1
102
RTVSPropertyOp14
 70
     1
102
RTVSPropertyOp15
 70
     1
102
RTVSPropertyOp16
 70
     1
102
RTVSPropertyOp17
 70
     1
102
RTVSPropertyOp18
 70
     1
102
RTVSPropertyOp19
 70
     1
102
RTVSPropertyOp20
 70
     1
102
RTVSPropertyOp21
 70
     1
102
RTVSPropertyOp22
 70
     1
102
RTVSPropertyOp23
 70
     1
102
RTVSPropertyOp24
 70
     1
102
RTVSPropertyOp25
 70
     1
102
RTVSPropertyOp26
 70
     1
102
RTVSPropertyOp27
 70
     1
102
RTVSPropertyOp28
 70
     1
102
RTVSPropertyOp29
 70
     1
102
RTVSPropertyOp30
 70
     1
102
RTVSPropertyOp31
 70
     1
102
RTVSPropertyOp32
 70
     1
102
RTVSPropertyOp33
 70
     1
102
RTVSPropertyOp34
 70
     1
102
RTVSPropertyOp35
 70
     1
102
RTVSPropertyOp36
 70
     1
102
RTVSPropertyOp37
 70
     1
102
RTVSPropertyOp38
 70
     1
102
RTVSPropertyOp39
 70
     1
102
RTVSPropertyOp40
 70
     1
102
RTVSPropertyOp41
 70
     1
102
RTVSPropertyOp42
 70
     1
102
RTVSPropertyOp43
 70
     1
102
RTVSPropertyOp44
 70
     1
102
RTVSPropertyOp45
 70
     1
102
RTVSPropertyOp46
 70
     1
102
RTVSPropertyOp47
 70
     1
102
RTVSPropertyOp48
 70
     1
102
RTVSPropertyOp49
 70
     1
102
RTVSPropertyOp50
 70
     1
102
RTVSPropertyOp51
 70
     0
102
RTVSPropertyOp52
 70
     0
102
RTVSPropertyOp53
 70
     1
102
RTVSPropertyOp54
 70
     1
102
RTVSPropertyOp55
 70
     1
102
RTVSPropertyOp56
 70
     1
102
RTVSPropertyOp57
 70
     1
102
RTVSPost2010Prop28
280
     0
102
RTVSPost2010PropOp28
 70
     1
102
RTVSPost2010Prop29
280
     1
102
RTVSPost2010PropOp29
 70
     1
102
RTVSPost2010Prop30
280
     1
102
RTVSPost2010PropOp30
 70
     1
102
RTVSPost2010Prop31
280
     0
102
RTVSPost2010PropOp31
 70
     1
102
RTVSPost2010Prop32
280
     0
102
RTVSPost2010PropOp32
 70
     1
102
RTVSPost2010Prop33
280
     0
102
RTVSPost2010PropOp33
 70
     1
102
RTVSPost2010Prop34
280
     0
102
RTVSPost2010PropOp34
 70
     1
102
RTVSPost2010Prop35
280
     0
102
RTVSPost2010PropOp35
 70
     1
102
RTVSPost2010Prop36
280
     0
102
RTVSPost2010PropOp36
 70
     1
102
RTVSPost2010Prop37
 90
       50
102
RTVSPost2010PropOp37
 70
     1
102
RTVSPost2010Prop38
140
0.0
102
RTVSPost2010PropOp38
 70
     1
102
RTVSPost2010Prop39
140
1.0
102
RTVSPost2010PropOp39
 70
     1
102
RTVSPost2010Prop40
 90
        0
102
RTVSPost2010PropOp40
 70
     1
102
RTVSPost2010Prop41ColorIndex
 90
       18
102
RTVSPost2010Prop41ColorRGB
 90
        0
102
RTVSPost2010PropOp41
 70
     1
102
RTVSPost2010Prop42
 90
       50
102
RTVSPost2010PropOp42
 70
     1
102
RTVSPost2010Prop43
 90
        3
102
RTVSPost2010PropOp43
 70
     1
102
RTVSPost2010Prop44ColorIndex
 90
        5
102
RTVSPost2010Prop44ColorRGB
 90
      255
102
RTVSPost2010PropOp44
 70
     1
102
RTVSPost2010Prop45
280
     0
102
RTVSPost2010PropOp45
 70
     1
102
RTVSPost2010Prop46
 90
       50
102
RTVSPost2010PropOp46
 70
     1
102
RTVSPost2010Prop47
 90
       50
102
RTVSPost2010PropOp47
 70
     1
102
RTVSPost2010Prop48
 90
       50
102
RTVSPost2010PropOp48
 70
     1
102
RTVSPost2010Prop49
280
     0
102
RTVSPost2010PropOp49
 70
     1
102
RTVSPost2010Prop50
 90
       50
102
RTVSPost2010PropOp50
 70
     1
102
RTVSPost2010Prop51ColorIndex
 90
      256
102
RTVSPost2010Prop51ColorRGB
 90
-16777216
102
RTVSPost2010PropOp51
 70
     0
102
RTVSPost2010Prop52
140
1.0
102
RTVSPost2010PropOp52
 70
     0
102
RTVSPost2010Prop53
 90
        2
102
RTVSPost2010PropOp53
 70
     1
102
RTVSPost2010Prop54
  1
strokes_ogs.tif
102
RTVSPost2010PropOp54
 70
     1
102
RTVSPost2010Prop55
280
     0
102
RTVSPost2010PropOp55
 70
     1
102
RTVSPost2010Prop56
140
1.0
102
RTVSPost2010PropOp56
 70
     1
102
RTVSPost2010Prop57
140
1.0
102
RTVSPost2010PropOp57
 70
     1
  0
XRECORD
  5
285
102
{ACAD_REACTORS
330
284
102
}
330
284
100
AcDbXrecord
280
     1
102
RTVSPropertyOp0
 70
     1
102
RTVSPropertyOp1
 70
     1
102
RTVSPropertyOp2
 70
     1
102
RTVSPropertyOp3
 70
     1
102
RTVSPropertyOp4
 70
     1
102
RTVSPropertyOp5
 70
     1
102
RTVSPropertyOp6
 70
     1
102
RTVSPropertyOp7
 70
     1
102
RTVSPropertyOp8
 70
     1
102
RTVSPropertyOp9
 70
     1
102
RTVSPropertyOp10
 70
     1
102
RTVSPropertyOp11
 70
     1
102
RTVSPropertyOp12
 70
     1
102
RTVSPropertyOp13
 70
     1
102
RTVSPropertyOp14
 70
     1
102
RTVSPropertyOp15
 70
     1
102
RTVSPropertyOp16
 70
     1
102
RTVSPropertyOp17
 70
     1
102
RTVSPropertyOp18
 70
     1
102
RTVSPropertyOp19
 70
     1
102
RTVSPropertyOp20
 70
     1
102
RTVSPropertyOp21
 70
     1
102
RTVSPropertyOp22
 70
     1
102
RTVSPropertyOp23
 70
     1
102
RTVSPropertyOp24
 70
     1
102
RTVSPropertyOp25
 70
     1
102
RTVSPropertyOp26
 70
     1
102
RTVSPropertyOp27
 70
     1
102
RTVSPropertyOp28
 70
     1
102
RTVSPropertyOp29
 70
     1
102
RTVSPropertyOp30
 70
     1
102
RTVSPropertyOp31
 70
     1
102
RTVSPropertyOp32
 70
     1
102
RTVSPropertyOp33
 70
     1
102
RTVSPropertyOp34
 70
     1
102
RTVSPropertyOp35
 70
     1
102
RTVSPropertyOp36
 70
     1
102
RTVSPropertyOp37
 70
     1
102
RTVSPropertyOp38
 70
     1
102
RTVSPropertyOp39
 70
     1
102
RTVSPropertyOp40
 70
     1
102
RTVSPropertyOp41
 70
     1
102
RTVSPropertyOp42
 70
     1
102
RTVSPropertyOp43
 70
     1
102
RTVSPropertyOp44
 70
     1
102
RTVSPropertyOp45
 70
     1
102
RTVSPropertyOp46
 70
     1
102
RTVSPropertyOp47
 70
     1
102
RTVSPropertyOp48
 70
     1
102
RTVSPropertyOp49
 70
     1
102
RTVSPropertyOp50
 70
     1
102
RTVSPropertyOp51
 70
     0
102
RTVSPropertyOp52
 70
     0
102
RTVSPropertyOp53
 70
     1
102
RTVSPropertyOp54
 70
     1
102
RTVSPropertyOp55
 70
     1
102
RTVSPropertyOp56
 70
     1
102
RTVSPropertyOp57
 70
     1
102
RTVSPost2010Prop28
280
     0
102
RTVSPost2010PropOp28
 70
     1
102
RTVSPost2010Prop29
280
     1
102
RTVSPost2010PropOp29
 70
     1
102
RTVSPost2010Prop30
280
     1
102
RTVSPost2010PropOp30
 70
     1
102
RTVSPost2010Prop31
280
     0
102
RTVSPost2010PropOp31
 70
     1
102
RTVSPost2010Prop32
280
     0
102
RTVSPost2010PropOp32
 70
     1
102
RTVSPost2010Prop33
280
     0
102
RTVSPost2010PropOp33
 70
     1
102
RTVSPost2010Prop34
280
     0
102
RTVSPost2010PropOp34
 70
     1
102
RTVSPost2010Prop35
280
     0
102
RTVSPost2010PropOp35
 70
     1
102
RTVSPost2010Prop36
280
     0
102
RTVSPost2010PropOp36
 70
     1
102
RTVSPost2010Prop37
 90
       50
102
RTVSPost2010PropOp37
 70
     1
102
RTVSPost2010Prop38
140
0.0
102
RTVSPost2010PropOp38
 70
     1
102
RTVSPost2010Prop39
140
1.0
102
RTVSPost2010PropOp39
 70
     1
102
RTVSPost2010Prop40
 90
        0
102
RTVSPost2010PropOp40
 70
     1
102
RTVSPost2010Prop41ColorIndex
 90
       18
102
RTVSPost2010Prop41ColorRGB
 90
        0
102
RTVSPost2010PropOp41
 70
     1
102
RTVSPost2010Prop42
 90
       50
102
RTVSPost2010PropOp42
 70
     1
102
RTVSPost2010Prop43
 90
        3
102
RTVSPost2010PropOp43
 70
     1
102
RTVSPost2010Prop44ColorIndex
 90
        5
102
RTVSPost2010Prop44ColorRGB
 90
      255
102
RTVSPost2010PropOp44
 70
     1
102
RTVSPost2010Prop45
280
     0
102
RTVSPost2010PropOp45
 70
     1
102
RTVSPost2010Prop46
 90
       50
102
RTVSPost2010PropOp46
 70
     1
102
RTVSPost2010Prop47
 90
       50
102
RTVSPost2010PropOp47
 70
     1
102
RTVSPost2010Prop48
 90
       50
102
RTVSPost2010PropOp48
 70
     1
102
RTVSPost2010Prop49
280
     0
102
RTVSPost2010PropOp49
 70
     1
102
RTVSPost2010Prop50
 90
       50
102
RTVSPost2010PropOp50
 70
     1
102
RTVSPost2010Prop51ColorIndex
 90
      256
102
RTVSPost2010Prop51ColorRGB
 90
-16777216
102
RTVSPost2010PropOp51
 70
     0
102
RTVSPost2010Prop52
140
1.0
102
RTVSPost2010PropOp52
 70
     0
102
RTVSPost2010Prop53
 90
        2
102
RTVSPost2010PropOp53
 70
     1
102
RTVSPost2010Prop54
  1
strokes_ogs.tif
102
RTVSPost2010PropOp54
 70
     1
102
RTVSPost2010Prop55
280
     0
102
RTVSPost2010PropOp55
 70
     1
102
RTVSPost2010Prop56
140
1.0
102
RTVSPost2010PropOp56
 70
     1
102
RTVSPost2010Prop57
140
1.0
102
RTVSPost2010PropOp57
 70
     1
  0
XRECORD
  5
275
102
{ACAD_REACTORS
330
274
102
}
330
274
100
AcDbXrecord
280
     1
102
RTVSPropertyOp0
 70
     1
102
RTVSPropertyOp1
 70
     1
102
RTVSPropertyOp2
 70
     1
102
RTVSPropertyOp3
 70
     1
102
RTVSPropertyOp4
 70
     1
102
RTVSPropertyOp5
 70
     1
102
RTVSPropertyOp6
 70
     1
102
RTVSPropertyOp7
 70
     1
102
RTVSPropertyOp8
 70
     1
102
RTVSPropertyOp9
 70
     1
102
RTVSPropertyOp10
 70
     1
102
RTVSPropertyOp11
 70
     1
102
RTVSPropertyOp12
 70
     1
102
RTVSPropertyOp13
 70
     1
102
RTVSPropertyOp14
 70
     1
102
RTVSPropertyOp15
 70
     1
102
RTVSPropertyOp16
 70
     1
102
RTVSPropertyOp17
 70
     1
102
RTVSPropertyOp18
 70
     1
102
RTVSPropertyOp19
 70
     1
102
RTVSPropertyOp20
 70
     1
102
RTVSPropertyOp21
 70
     1
102
RTVSPropertyOp22
 70
     1
102
RTVSPropertyOp23
 70
     1
102
RTVSPropertyOp24
 70
     1
102
RTVSPropertyOp25
 70
     1
102
RTVSPropertyOp26
 70
     1
102
RTVSPropertyOp27
 70
     1
102
RTVSPropertyOp28
 70
     1
102
RTVSPropertyOp29
 70
     1
102
RTVSPropertyOp30
 70
     1
102
RTVSPropertyOp31
 70
     1
102
RTVSPropertyOp32
 70
     1
102
RTVSPropertyOp33
 70
     1
102
RTVSPropertyOp34
 70
     1
102
RTVSPropertyOp35
 70
     1
102
RTVSPropertyOp36
 70
     1
102
RTVSPropertyOp37
 70
     1
102
RTVSPropertyOp38
 70
     1
102
RTVSPropertyOp39
 70
     1
102
RTVSPropertyOp40
 70
     1
102
RTVSPropertyOp41
 70
     1
102
RTVSPropertyOp42
 70
     1
102
RTVSPropertyOp43
 70
     1
102
RTVSPropertyOp44
 70
     1
102
RTVSPropertyOp45
 70
     1
102
RTVSPropertyOp46
 70
     1
102
RTVSPropertyOp47
 70
     1
102
RTVSPropertyOp48
 70
     1
102
RTVSPropertyOp49
 70
     1
102
RTVSPropertyOp50
 70
     1
102
RTVSPropertyOp51
 70
     0
102
RTVSPropertyOp52
 70
     0
102
RTVSPropertyOp53
 70
     1
102
RTVSPropertyOp54
 70
     1
102
RTVSPropertyOp55
 70
     1
102
RTVSPropertyOp56
 70
     1
102
RTVSPropertyOp57
 70
     1
102
RTVSPost2010Prop28
280
     0
102
RTVSPost2010PropOp28
 70
     1
102
RTVSPost2010Prop29
280
     1
102
RTVSPost2010PropOp29
 70
     1
102
RTVSPost2010Prop30
280
     1
102
RTVSPost2010PropOp30
 70
     1
102
RTVSPost2010Prop31
280
     0
102
RTVSPost2010PropOp31
 70
     1
102
RTVSPost2010Prop32
280
     0
102
RTVSPost2010PropOp32
 70
     1
102
RTVSPost2010Prop33
280
     0
102
RTVSPost2010PropOp33
 70
     1
102
RTVSPost2010Prop34
280
     0
102
RTVSPost2010PropOp34
 70
     1
102
RTVSPost2010Prop35
280
     0
102
RTVSPost2010PropOp35
 70
     1
102
RTVSPost2010Prop36
280
     0
102
RTVSPost2010PropOp36
 70
     1
102
RTVSPost2010Prop37
 90
       50
102
RTVSPost2010PropOp37
 70
     1
102
RTVSPost2010Prop38
140
0.0
102
RTVSPost2010PropOp38
 70
     1
102
RTVSPost2010Prop39
140
1.0
102
RTVSPost2010PropOp39
 70
     1
102
RTVSPost2010Prop40
 90
        0
102
RTVSPost2010PropOp40
 70
     1
102
RTVSPost2010Prop41ColorIndex
 90
       18
102
RTVSPost2010Prop41ColorRGB
 90
        0
102
RTVSPost2010PropOp41
 70
     1
102
RTVSPost2010Prop42
 90
       50
102
RTVSPost2010PropOp42
 70
     1
102
RTVSPost2010Prop43
 90
        3
102
RTVSPost2010PropOp43
 70
     1
102
RTVSPost2010Prop44ColorIndex
 90
        5
102
RTVSPost2010Prop44ColorRGB
 90
      255
102
RTVSPost2010PropOp44
 70
     1
102
RTVSPost2010Prop45
280
     0
102
RTVSPost2010PropOp45
 70
     1
102
RTVSPost2010Prop46
 90
       50
102
RTVSPost2010PropOp46
 70
     1
102
RTVSPost2010Prop47
 90
       50
102
RTVSPost2010PropOp47
 70
     1
102
RTVSPost2010Prop48
 90
       50
102
RTVSPost2010PropOp48
 70
     1
102
RTVSPost2010Prop49
280
     0
102
RTVSPost2010PropOp49
 70
     1
102
RTVSPost2010Prop50
 90
       50
102
RTVSPost2010PropOp50
 70
     1
102
RTVSPost2010Prop51ColorIndex
 90
      256
102
RTVSPost2010Prop51ColorRGB
 90
-16777216
102
RTVSPost2010PropOp51
 70
     0
102
RTVSPost2010Prop52
140
1.0
102
RTVSPost2010PropOp52
 70
     0
102
RTVSPost2010Prop53
 90
        2
102
RTVSPost2010PropOp53
 70
     1
102
RTVSPost2010Prop54
  1
strokes_ogs.tif
102
RTVSPost2010PropOp54
 70
     1
102
RTVSPost2010Prop55
280
     0
102
RTVSPost2010PropOp55
 70
     1
102
RTVSPost2010Prop56
140
1.0
102
RTVSPost2010PropOp56
 70
     1
102
RTVSPost2010Prop57
140
1.0
102
RTVSPost2010PropOp57
 70
     1
  0
XRECORD
  5
267
102
{ACAD_REACTORS
330
266
102
}
330
266
100
AcDbXrecord
280
     1
102
RTVSPropertyOp0
 70
     1
102
RTVSPropertyOp1
 70
     1
102
RTVSPropertyOp2
 70
     1
102
RTVSPropertyOp3
 70
     1
102
RTVSPropertyOp4
 70
     1
102
RTVSPropertyOp5
 70
     1
102
RTVSPropertyOp6
 70
     1
102
RTVSPropertyOp7
 70
     1
102
RTVSPropertyOp8
 70
     1
102
RTVSPropertyOp9
 70
     1
102
RTVSPropertyOp10
 70
     1
102
RTVSPropertyOp11
 70
     1
102
RTVSPropertyOp12
 70
     1
102
RTVSPropertyOp13
 70
     1
102
RTVSPropertyOp14
 70
     1
102
RTVSPropertyOp15
 70
     1
102
RTVSPropertyOp16
 70
     1
102
RTVSPropertyOp17
 70
     1
102
RTVSPropertyOp18
 70
     1
102
RTVSPropertyOp19
 70
     1
102
RTVSPropertyOp20
 70
     1
102
RTVSPropertyOp21
 70
     1
102
RTVSPropertyOp22
 70
     1
102
RTVSPropertyOp23
 70
     1
102
RTVSPropertyOp24
 70
     1
102
RTVSPropertyOp25
 70
     1
102
RTVSPropertyOp26
 70
     1
102
RTVSPropertyOp27
 70
     1
102
RTVSPropertyOp28
 70
     1
102
RTVSPropertyOp29
 70
     1
102
RTVSPropertyOp30
 70
     1
102
RTVSPropertyOp31
 70
     1
102
RTVSPropertyOp32
 70
     1
102
RTVSPropertyOp33
 70
     1
102
RTVSPropertyOp34
 70
     1
102
RTVSPropertyOp35
 70
     1
102
RTVSPropertyOp36
 70
     1
102
RTVSPropertyOp37
 70
     1
102
RTVSPropertyOp38
 70
     1
102
RTVSPropertyOp39
 70
     1
102
RTVSPropertyOp40
 70
     1
102
RTVSPropertyOp41
 70
     1
102
RTVSPropertyOp42
 70
     1
102
RTVSPropertyOp43
 70
     1
102
RTVSPropertyOp44
 70
     1
102
RTVSPropertyOp45
 70
     1
102
RTVSPropertyOp46
 70
     1
102
RTVSPropertyOp47
 70
     1
102
RTVSPropertyOp48
 70
     1
102
RTVSPropertyOp49
 70
     1
102
RTVSPropertyOp50
 70
     1
102
RTVSPropertyOp51
 70
     0
102
RTVSPropertyOp52
 70
     0
102
RTVSPropertyOp53
 70
     1
102
RTVSPropertyOp54
 70
     1
102
RTVSPropertyOp55
 70
     1
102
RTVSPropertyOp56
 70
     1
102
RTVSPropertyOp57
 70
     1
102
RTVSPost2010Prop28
280
     0
102
RTVSPost2010PropOp28
 70
     1
102
RTVSPost2010Prop29
280
     1
102
RTVSPost2010PropOp29
 70
     1
102
RTVSPost2010Prop30
280
     1
102
RTVSPost2010PropOp30
 70
     1
102
RTVSPost2010Prop31
280
     0
102
RTVSPost2010PropOp31
 70
     1
102
RTVSPost2010Prop32
280
     0
102
RTVSPost2010PropOp32
 70
     1
102
RTVSPost2010Prop33
280
     0
102
RTVSPost2010PropOp33
 70
     1
102
RTVSPost2010Prop34
280
     0
102
RTVSPost2010PropOp34
 70
     1
102
RTVSPost2010Prop35
280
     0
102
RTVSPost2010PropOp35
 70
     1
102
RTVSPost2010Prop36
280
     0
102
RTVSPost2010PropOp36
 70
     1
102
RTVSPost2010Prop37
 90
       50
102
RTVSPost2010PropOp37
 70
     1
102
RTVSPost2010Prop38
140
0.0
102
RTVSPost2010PropOp38
 70
     1
102
RTVSPost2010Prop39
140
1.0
102
RTVSPost2010PropOp39
 70
     1
102
RTVSPost2010Prop40
 90
        0
102
RTVSPost2010PropOp40
 70
     1
102
RTVSPost2010Prop41ColorIndex
 90
       18
102
RTVSPost2010Prop41ColorRGB
 90
        0
102
RTVSPost2010PropOp41
 70
     1
102
RTVSPost2010Prop42
 90
       50
102
RTVSPost2010PropOp42
 70
     1
102
RTVSPost2010Prop43
 90
        3
102
RTVSPost2010PropOp43
 70
     1
102
RTVSPost2010Prop44ColorIndex
 90
        5
102
RTVSPost2010Prop44ColorRGB
 90
      255
102
RTVSPost2010PropOp44
 70
     1
102
RTVSPost2010Prop45
280
     0
102
RTVSPost2010PropOp45
 70
     1
102
RTVSPost2010Prop46
 90
       50
102
RTVSPost2010PropOp46
 70
     1
102
RTVSPost2010Prop47
 90
       50
102
RTVSPost2010PropOp47
 70
     1
102
RTVSPost2010Prop48
 90
       50
102
RTVSPost2010PropOp48
 70
     1
102
RTVSPost2010Prop49
280
     0
102
RTVSPost2010PropOp49
 70
     1
102
RTVSPost2010Prop50
 90
       50
102
RTVSPost2010PropOp50
 70
     1
102
RTVSPost2010Prop51ColorIndex
 90
      256
102
RTVSPost2010Prop51ColorRGB
 90
-16777216
102
RTVSPost2010PropOp51
 70
     0
102
RTVSPost2010Prop52
140
1.0
102
RTVSPost2010PropOp52
 70
     0
102
RTVSPost2010Prop53
 90
        2
102
RTVSPost2010PropOp53
 70
     1
102
RTVSPost2010Prop54
  1
strokes_ogs.tif
102
RTVSPost2010PropOp54
 70
     1
102
RTVSPost2010Prop55
280
     0
102
RTVSPost2010PropOp55
 70
     1
102
RTVSPost2010Prop56
140
1.0
102
RTVSPost2010PropOp56
 70
     1
102
RTVSPost2010Prop57
140
1.0
102
RTVSPost2010PropOp57
 70
     1
  0
XRECORD
  5
287
102
{ACAD_REACTORS
330
286
102
}
330
286
100
AcDbXrecord
280
     1
102
RTVSPropertyOp0
 70
     1
102
RTVSPropertyOp1
 70
     1
102
RTVSPropertyOp2
 70
     1
102
RTVSPropertyOp3
 70
     1
102
RTVSPropertyOp4
 70
     1
102
RTVSPropertyOp5
 70
     1
102
RTVSPropertyOp6
 70
     1
102
RTVSPropertyOp7
 70
     1
102
RTVSPropertyOp8
 70
     1
102
RTVSPropertyOp9
 70
     1
102
RTVSPropertyOp10
 70
     1
102
RTVSPropertyOp11
 70
     1
102
RTVSPropertyOp12
 70
     1
102
RTVSPropertyOp13
 70
     1
102
RTVSPropertyOp14
 70
     1
102
RTVSPropertyOp15
 70
     1
102
RTVSPropertyOp16
 70
     1
102
RTVSPropertyOp17
 70
     1
102
RTVSPropertyOp18
 70
     1
102
RTVSPropertyOp19
 70
     1
102
RTVSPropertyOp20
 70
     1
102
RTVSPropertyOp21
 70
     1
102
RTVSPropertyOp22
 70
     1
102
RTVSPropertyOp23
 70
     1
102
RTVSPropertyOp24
 70
     1
102
RTVSPropertyOp25
 70
     1
102
RTVSPropertyOp26
 70
     1
102
RTVSPropertyOp27
 70
     1
102
RTVSPropertyOp28
 70
     1
102
RTVSPropertyOp29
 70
     1
102
RTVSPropertyOp30
 70
     1
102
RTVSPropertyOp31
 70
     1
102
RTVSPropertyOp32
 70
     1
102
RTVSPropertyOp33
 70
     1
102
RTVSPropertyOp34
 70
     1
102
RTVSPropertyOp35
 70
     1
102
RTVSPropertyOp36
 70
     1
102
RTVSPropertyOp37
 70
     1
102
RTVSPropertyOp38
 70
     1
102
RTVSPropertyOp39
 70
     1
102
RTVSPropertyOp40
 70
     1
102
RTVSPropertyOp41
 70
     1
102
RTVSPropertyOp42
 70
     1
102
RTVSPropertyOp43
 70
     1
102
RTVSPropertyOp44
 70
     1
102
RTVSPropertyOp45
 70
     1
102
RTVSPropertyOp46
 70
     1
102
RTVSPropertyOp47
 70
     1
102
RTVSPropertyOp48
 70
     1
102
RTVSPropertyOp49
 70
     1
102
RTVSPropertyOp50
 70
     1
102
RTVSPropertyOp51
 70
     0
102
RTVSPropertyOp52
 70
     0
102
RTVSPropertyOp53
 70
     1
102
RTVSPropertyOp54
 70
     1
102
RTVSPropertyOp55
 70
     1
102
RTVSPropertyOp56
 70
     1
102
RTVSPropertyOp57
 70
     1
102
RTVSPost2010Prop28
280
     0
102
RTVSPost2010PropOp28
 70
     1
102
RTVSPost2010Prop29
280
     1
102
RTVSPost2010PropOp29
 70
     1
102
RTVSPost2010Prop30
280
     1
102
RTVSPost2010PropOp30
 70
     1
102
RTVSPost2010Prop31
280
     0
102
RTVSPost2010PropOp31
 70
     1
102
RTVSPost2010Prop32
280
     0
102
RTVSPost2010PropOp32
 70
     1
102
RTVSPost2010Prop33
280
     0
102
RTVSPost2010PropOp33
 70
     1
102
RTVSPost2010Prop34
280
     0
102
RTVSPost2010PropOp34
 70
     1
102
RTVSPost2010Prop35
280
     0
102
RTVSPost2010PropOp35
 70
     1
102
RTVSPost2010Prop36
280
     0
102
RTVSPost2010PropOp36
 70
     1
102
RTVSPost2010Prop37
 90
       50
102
RTVSPost2010PropOp37
 70
     1
102
RTVSPost2010Prop38
140
0.0
102
RTVSPost2010PropOp38
 70
     1
102
RTVSPost2010Prop39
140
1.0
102
RTVSPost2010PropOp39
 70
     1
102
RTVSPost2010Prop40
 90
        0
102
RTVSPost2010PropOp40
 70
     1
102
RTVSPost2010Prop41ColorIndex
 90
       18
102
RTVSPost2010Prop41ColorRGB
 90
        0
102
RTVSPost2010PropOp41
 70
     1
102
RTVSPost2010Prop42
 90
       50
102
RTVSPost2010PropOp42
 70
     1
102
RTVSPost2010Prop43
 90
        3
102
RTVSPost2010PropOp43
 70
     1
102
RTVSPost2010Prop44ColorIndex
 90
        5
102
RTVSPost2010Prop44ColorRGB
 90
      255
102
RTVSPost2010PropOp44
 70
     1
102
RTVSPost2010Prop45
280
     0
102
RTVSPost2010PropOp45
 70
     1
102
RTVSPost2010Prop46
 90
       50
102
RTVSPost2010PropOp46
 70
     1
102
RTVSPost2010Prop47
 90
       50
102
RTVSPost2010PropOp47
 70
     1
102
RTVSPost2010Prop48
 90
       50
102
RTVSPost2010PropOp48
 70
     1
102
RTVSPost2010Prop49
280
     0
102
RTVSPost2010PropOp49
 70
     1
102
RTVSPost2010Prop50
 90
       50
102
RTVSPost2010PropOp50
 70
     1
102
RTVSPost2010Prop51ColorIndex
 90
      256
102
RTVSPost2010Prop51ColorRGB
 90
-16777216
102
RTVSPost2010PropOp51
 70
     0
102
RTVSPost2010Prop52
140
1.0
102
RTVSPost2010PropOp52
 70
     0
102
RTVSPost2010Prop53
 90
        2
102
RTVSPost2010PropOp53
 70
     1
102
RTVSPost2010Prop54
  1
strokes_ogs.tif
102
RTVSPost2010PropOp54
 70
     1
102
RTVSPost2010Prop55
280
     0
102
RTVSPost2010PropOp55
 70
     1
102
RTVSPost2010Prop56
140
1.0
102
RTVSPost2010PropOp56
 70
     1
102
RTVSPost2010Prop57
140
1.0
102
RTVSPost2010PropOp57
 70
     1
  0
ENDSEC
  0
EOF
